Ads

Incommunicable Message (Little Busters!) Guitar Tab

Submitted: Nov 14, 2013 by scarecrowlol (Last updated: Jul 01, 2018)

5
Average: 5 (4 votes)
Download | Listen
Game: Little Busters!
Composer(s): Jun Maeda, PMMK, Manack, Shinji Orito, Magome Togoshi
Style: Arrangement, Fingerstyle

AutoScroll: Slow | Medium | Fast
Title: Incommunicable Message
SubTitle: Little Busters!
Artist: Jun Maeda, PMMK, Manack, Shinji Orito, Magome Togoshi
Tabber: Mitch Jackson
Tempo = 84
T/S = 4/4

Left hand fingering is included in the GP files as a guide.


       ♪♫•*¨*•.¸¸ CAPO 1 ¸¸.•*¨*•♫♪


   1/4     4/4  

     Q       E  E  E  Q     E  E  E       E  E  E  E  E  E  Q          E  E  E  Q     E  E  E                                                                
E |-------|--2-----------------2--5----|--2-----------0-------------|-----------2-----------0----|
B |-------|-----------3-----5----------|-----------3--------3-------|--2-----2--3--------2-------|
G |--4----|-----------4----------------|-----------4----------------|-----------------4----------|
D |-------|--------4-------------------|--------4-------------------|-----4----------------------|
A |-------|-----2----------------------|-----2-----------2----------|--2-------------------------|
D |-------|--2-------------------------|--2-------------------------|----------------------------|

                                                          

     E  E  E  Q     E  Q          E  E  E  Q     E  E  E       E  E  E  E  E  E  Q          E  E  E  H          S S                                                     
  |-----------2----------------|--2-----------------2--5----|--2-----------0-------------|----------------------------|
  |--2-----2--3----------------|-----------3-----5----------|-----------3--------3-------|----------------------0h2---|
  |----------------------------|-----------4----------------|-----------4----------------|--6-------------------------|
  |-----4--------------4-------|--------4-------------------|--------4--------4----------|-----------4----------------|
  |--2--------------2----------|-----2----------------------|-----2--------------2-------|-----0--7--7----------------|
  |----------------------------|--2-------------------------|--2-------------------------|--0-------------------------|

                                                     

     E  E  E  Q     E  Q          E  E  E  Q     E  E  E       E  E  E  E  Q     Q          E  E  E  Q     E  E  E                                                      
  |--2-----2--------5----------|--2-----------------2--5----|--2-----------0-------------|-----------2-----------0----|
  |-----------2--------0-------|-----------3-----5----------|--------------------3-------|--2-----2--3--------2-------|
  |----------------------------|-----------4----------------|-----------0----------------|-----------------4----------|
  |--------2-------------------|--------4-------------------|--------0-------------------|-----4-----------------4----|
  |-----0----------------------|-----2-----------------2----|-----2----------------------|--2-------------------------|
  |--0-------------------------|--2-------------------------|--2-------------------------|----------------------------|

                                                          

     E  E  E  Q     E  Q          E  E  E  Q.       E  E       E  E  E  E  Q     Q          E  E  E  Q.       E  E                                                     
  |-----------2--------5-------|-----------------------2----|--0-----------5-------------|-----------2----------------|
  |--2-----2--3-----0----------|--0-----------------0-------|--------------------2-------|--2-------------------------|
  |----------------------------|-----------0----------------|-----------2----------------|-----4--4-------------------|
  |-----4----------------------|--------0-------------------|--------2-------------------|-----4--------------4--4----|
  |--2-------------------------|-----2----------------------|-----4----------------------|--2-------------------------|
  |----------------------------|--2-------------------------|--4-------------------------|----------------------------|

                                                          

     E  E  E  E  E  E  Q          E  E  E  Q     E  E  E       E  E  E  E  Q     Q          E  E  E  Q     E  E  E                                                     
  |--------------2-------------|--2--------------0--2--5----|--2-----------0-------------|-----------2-----------0----|
  |--------2h-3----------------|----------------------------|-----------3--------3-------|--2-----2--3--------2-------|
  |-----------------2--4-------|-----------0----------------|-----------4----------------|-----------------4----------|
  |-----4----------------------|--------0-------------------|--------5-------------------|-----4-----------------4----|
  |--2-----------------2-------|-----2----------------------|-----2--------------2-------|--2-------------------------|
  |----------------------------|--2-------------------------|--2-------------------------|----------------------------|

                                                          

     E  E  E  Q.       Q          E  E  E  Q     E  E  E       E  E  E  E  E  E  Q          E  E  E  Q.      E  S S                                                     
  |-----------2----------------|--2--------------0--2--5----|--2-----------0-------------|-----------2----------------|
  |--2-----2--3----------------|--------------------0-------|-----------3--------3-------|--2-----2-------------0h2---|
  |--------------------4-------|-----------0----------------|----------------------------|-----------2----------------|
  |-----4----------------------|--------0-------------------|--------0-------------------|--------2-------------------|
  |--2-------------------------|-----2----------------------|-----2-----------2----------|-----0-------------0--------|
  |----------------------------|--2-------------------------|--2-------------------------|--0-------------------------|

                             

     E  E  E  Q     E  Q          E  E  E  Q     E  E  E       E  E  E  E  E  E  Q          E  E  E  Q     E  E  E                                                     
  |--2-----2--------5----------|--2--------------0--2--5----|--2-----------0-------------|-----------2-----------0----|
  |-----------2--------0-------|--------------------0-------|--------------------3-------|--2-----2--3--------2-------|
  |----------------------------|-----------0----------------|-----------0-----0----------|-----------------4----------|
  |----------------------------|--------0-------------------|--------0-------------------|-----4-----------------4----|
  |-----0----------------------|-----2----------------------|-----2----------------------|--2-------------------------|
  |--0-------------------------|--2-------------------------|--2-------------------------|----------------------------|

                                                          

     E  E  E  Q.       Q          E  E  E  Q.       E  E       E  E  E  E  Q     Q          E  E  E  E  Q     E  E                                                     
  |----------------------------|-----------------------2----|--0-----------5-------------|-----------------------7----|
  |--2--------3----------------|--0-----------------0-------|--------------------2-------|--3-----------0-----3-------|
  |--------6--6--------2-------|-----------0----------------|-----------2----------------|--------0--2----------------|
  |-----4--------------4-------|--------0-------------------|--------2-------------------|-----0--------------0-------|
  |--2-------------------------|-----2----------------------|-----4--------------4-------|----------------------------|
  |----------------------------|--2-------------------------|--4-------------------------|--5-------------------------|

                                                                   
                                  ^                                                         ^ 
     E  E  E  E  E  E  E  E       E  E  E  E  E  E  E  E       E  E  E  E  E  E  E  E       E  E  E  E  E  E  E  E                     
  |--5-----0-----2-----3-------|--2-----------0-------------|--5-----0-----5-----2-------|--------2-----0-------------|
  |-----------0--2--------2----|--2-----3-----------3-------|--------------------2h-3----|--------------------3-------|
  |--------2-----------2-------|--4-------------------------|----------------------------|--0-------------------------|
  |-----2-----------2----------|-----4-----4-----4-----4----|-----4-----4-----4-----4----|--4-------------------------|
  |--0-------------------------|--2-------------------------|--2-------------------------|--5--5-----5-----5-----5----|
  |----------------------------|----------------------------|----------------------------|--5-------------------------|

                                                        

     E  E  E  E  E  E  E  E       E  E  E  E  E  E  E  E       E  E  E  E  E  E  E  E       E  E  E  E  E  E  E  E                                                     
  |----------------------------|--2-------------------------|----------------------------|--2-------------------------|
  |----------------------------|--------3-----2-------------|--------0-----2-------------|-----------2--3--------2----|
  |--2-----------2-------------|--------------------4-------|--2-------------------------|--------4-----------4-------|
  |--------2-----------4-------|--------2-----2-----2-------|--------------------2-------|-----4-----------4----------|
  |-----5-----5-----5-----5----|-----2-----2-----2-----2----|-----4-----4-----4-----4----|--2-------------------------|
  |--5-------------------------|--2-------------------------|--4-------------------------|----------------------------|

                                                         
                                  ^                                                         ^
     E  E  E  E  E  E  E  E       E  E  E  E  E  E  E  E       E  E  E  E  E  E  E  E       E  E  E  E  E  E  E  E                                                      
  |--------------0-------------|--2-------------------------|--5-----0-----5-----2-------|--------2-----0-------------|
  |--3-----0-----------2-------|--2-----3-----2-------------|--------------2-----3-------|--------------------3-------|
  |-----------0-----------2----|--4-----------------4-------|----------------------------|--0-------------------------|
  |--------2-----------4-------|-----4-----4-----4-----4----|-----4-----4-----4-----4----|--4-------------------------|
  |-----2-----------4----------|--2-------------------------|--2-------------------------|--5--5-----5-----5-----5----|
  |--2-----------4-------------|----------------------------|----------------------------|--5-------------------------|

                                                         

     E  E  E  E  E  E  E  E       E  E  E  E  E  E  E  E       E  E  E  E  E  E  E  E       E  E  E  E  E  E  E  E                                                     
  |----------------------------|--------2-------------------|--------------------5-------|--2-----------------2--5----|
  |--2-----------2-----3-------|--3-----------5-----3-------|--5-------------------------|--------------0--3----------|
  |--------2-------------------|----------------------------|--------7-----6-------------|--------0--2----------------|
  |-----0-----0-----0-----0----|--------2-----2-----2-------|----------------------------|-----0----------------------|
  |----------------------------|-----2-----2-----2-----2----|-----4-----4-----4-----4----|----------------------------|
  |--5-------------------------|--2-------------------------|--4-------------------------|--5-------------------------|

                                                          

     E  E  E  E  E  E  E  E         E  E  E  E  E  E  E  E       E  E  E  E  E  E  E  E       E  E  E  E  E  E  E  E                                                     
  |--------------------0-------||-----------------------------|----------------------------|----------------------------|
  |--------0-----2-------------||---2-----2-----2-----2-------|--3-----3-----3-----3-------|--3-----3-----3-----3-------|
  |--2-------------------------||o--4-----4-----4-----4-------|--6-----6-----6-----6-------|--4-----4-----4-----4-------|
  |-----2-----2-----2-----2----||o-----4-----4-----4-----4----|-----4-----4-----4-----4----|-----0-----0-----0-----0----|
  |--0-------------------------||---2-------------------------|--2-------------------------|----------------------------|
  |----------------------------||-----------------------------|----------------------------|--5-------------------------|

                                                          
  |------FIRST ENDING---------> |------SECOND ENDING-------->
     E  E  E  E  E  E  E  E        E  E  E  E  E  E  Q          E  E  E  Q     E  E  E       E  E  E  E  E  E  Q                                                         
  |----------------------------||----------------------------|--2-----------------2--5----|--2-----------0-------------|
  |--3-----3-----3-----3-------||--3-----3-----3-------------|-----------3-----5----------|-----------3--------3-------|
  |--4-----4-----4-----4------o||--4-----4-----4-----4-------|-----------4----------------|-----------4-----4----------|
  |-----0-----0-----0-----0---o||-----0-----0-----0----------|--------4-------------------|--------4-------------------|
  |----------------------------||----------------------------|-----2-----------------2----|-----2----------------------|
  |--5-------------------------||--5-------------------------|--2-------------------------|--2-------------------------|

                                                          

     E  E  E  Q     E  E  E       E  E  E  Q     E  Q          E  E  E  Q     E  E  E       E  E  E  E  Q     Q                                                     
  |-----------5-----------0----|-----------2----------------|--2-----------------2--5----|--2-----------0-------------|
  |--2-----2--3--------2-------|--2-----2--3-----2----------|-----------3-----5----------|-----------3--------3-------|
  |-----------------4----------|--------------------4-------|-----------6----------------|-----------4----------------|
  |-----4-----------------4----|-----4----------------------|--------4-------------------|--------4-------------------|
  |--2-------------------------|--2-------------------------|-----2-----------------2----|-----2--------------2-------|
  |----------------------------|----------------------------|--2-------------------------|--2-------------------------|

                                                          

     E  E  E  H          S S      E  E  E  Q     E  Q          E  E  E  Q     E  E  E       E  E  E  E  E  E  E  E                                                
  |-----------5----------2-----|--2--------5--------2-------|--2-----------------2--5----|--2--------2--0-------------|
  |--2-----2-------------0h2---|--------2-----------0-------|-----------3-----5----------|-----------3-----0--3-------|
  |-----------2----------------|-----------2-----2----------|-----------4----------------|--------0-------------------|
  |--------2-------------------|--------2-------------------|--------5-------------------|-----------------------4----|
  |-----0----------------------|-----0----------------------|-----2-----------------2----|-----2--------------2-------|
  |--0-------------------------|--0-------------------------|--2-------------------------|--2-------------------------|

                                                          

     E  E  E  Q     E  E  E       E  E  E  Q     E  Q          E  E  E  Q     E  E  E       E  E  E  E  E  E  Q                                                      
  |-----------5-----------0----|-----------2----------------|-----------------------2----|--0-----------5-------------|
  |--2-----2--3--------2-------|--2-----2--3-----2----------|--0--------0--------0-------|--------------------2-------|
  |-----------------4----------|--------------------2-------|-----------0-----0----------|-----------2--------2-------|
  |-----4-----------------4----|-----4--------------4-------|--------0-------------------|--------2-------------------|
  |--2-------------------------|--2-------------------------|-----2----------------------|-----4-----------4----------|
  |----------------------------|----------------------------|--2-------------------------|--4-------------------------|

                                              |--RALL--> 50BPM             80BPM ----> 30BPM        
                                                               ^           |-3_|
     E  E  E  Q     E  E  E       E  E  E  E  E  E  E  E       H           T T T E  E  E.       W                                      
  |-----------2-----------7----|--5--------0--------5--0----|--2-----------------------------|--L-------------------------||
  |--3--------0--------3-------|--------------2--2----------|--3-----------2h3p2-L-----------|--L-------------------------||
  |--------0-----------0-------|--------2-------------------|--4--------------------2--------|--L-------------------------||
  |-----0-----------0----------|-----2----------------------|--4-----------------------2-----|--L-------------------------||
  |----------------------------|--0-------------------------|--2-----------------------------|--L-------------------------||
  |--5-------------------------|----------------------------|--------------------------------|----------------------------||

                             

Login or Register to remove this ad.