Dragon Roost Island (Legend of Zelda: The Wind Waker) Ukulele Tab

Submitted: Feb 17, 2014 by Antisocial Wolf

5
Average: 5 (1 vote)
Download | Listen
Game: Legend of Zelda: The Wind Waker
Composer(s): Koji Kondo, Hajime Wakai, Toru Minegishi, Kenta Nagata
Style: Transcription
Series: Legend of Zelda

AutoScroll: Slow | Medium | Fast
Chords (Universal for any Instrument)
D
Gm F | Gm F

      | Gm       F      | Gm     F        | Gm       F      | A#           |
Tab   |                 |                 |                 |              |
     A|-1---0-1--3---0--|-----------------|-1---0-1--3---8--|-5--------5-1-|
     E|-----------------|-3----------1----|-----------------|--------------|
     C|-----------------|--------2------2-|-----------------|--------------|
     G|-----------------|-----------------|-----------------|--------------|


      | G#              | Gm              | F               | D#           |
      |                 |                 |                 |              |
      |-3---5-3-------1-|---------------1-|-3---5-3-------1-|--------------|
      |-----------------|-3-----------3---|-----------------|-3------------|
      |-----------------|-----2-----------|-----------------|--------------|
      |-----------------|-----------------|-----------------|--------------|
      (Repeat Once more)

      | D#              | F               | D#              | F            |
      |                 |                 |                 |              |
   -5-|-10---8---5---1--|-3---------5---1-|-3-------------1-|-3----------5-|
      |-----------------|-------------3---|-----------------|--------------|
      |-----------------|-----------------|-----------------|--------------|
      |-----------------|-----------------|-----------------|--------------|

      | D#              | F               | D#              | F            | F
      |                 |                 |                 |              |
      |-10---8---5---1--|-3---------5---1-|-3-------------1-|-3----------5-|
      |-----------------|-------------3---|-----------------|--------------|
      |-----------------|-----------------|-----------------|--------------|
      |-----------------|-----------------|-----------------|--------------|
Login or Register to remove this ad.

1 comment on Dragon Roost Island

You should get a medal

5

The chords are spot on! I nearly missed it because I don't play ukelele, but the chords on a guitar sound beautiful. :D