Ads

Resurging of Kakariko Village (Legend of Zelda: Twilight Princess) Guitar Tab

Submitted: Sep 07, 2010 by diralark (Last updated: Sep 07, 2010)

5
Average: 5 (5 votes)
Download | Listen
Game: Legend of Zelda: Twilight Princess
Composer(s): Koji Kondo, Asuka Ohta, Toru Minegishi
Style: Arrangement, Fingerstyle, Transcription
Series: Legend of Zelda

This song is also called Kakariko is Saved

AutoScroll: Slow | Medium | Fast
                         Resurging of Kakariko Village                                     

                 [ from The Legend of Zelda : Twilight Princess ]

        music by Koji Kondo, Toru Minegishi & Asuka Ota >> sequenced
           by Jamie Williams >> solo guitar arrang. by Diralark


  Std tuning Guitar - Tempo 80


      S S S S E  E  Q    E  S S    E  E  E  S S Q    E  E     S S S S E  E  Q    E  S S  
E||-----0---0---------------0-2-|--3--------0---0----------|----0---0---------------0-2-|
B||-------0---0-----------------|-----------0-3-0-------0--|------0---0-----------------|
G||*----------6--6--L-----------|--------2-----------------|----------6--6--L-----------|
D||*--7-------------------------|-----0--------------0-----|--7-------------------------|
A||-------7--------------7------|--------------------------|------7--------------7------|
E||---5-------------------------|--3-----------------------|--5-------------------------|


  E  E  E  S  S E  E  E  E     S S S S E  E  Q    E  E     S S S  S E  E  E  E  E  S  S  
--3--------5p-3-0-----------|---------------------------|-------------------------------|
-----------0----0-----------|----0---0-1-----1----------|--0-1-0h-1-3--0-----------0h-2-|
--------2----------2-----2--|--2---2---0--2-------0--2--|-----------2-----7-------------|
-----0----------------0-----|---------------------------|------0-------------7----------|
----------------------------|------3-----------------3--|-----------------------5-------|
--3-------------------------|--1------------------------|--3----------------------------|


  E  E  E  E  E  E  E  E     E  E  E  E  E  E  E  E       E  E  E  E  E  E  E  S S  
--------0-----------------|---------------------------||-----------------------0-2-|
--0--------3--2-----------|-----------3--2------------||-----------3--2------------|
-----2-----------2-----2--|--------2--------2-----2--*||--------2--------2-----2---|
-----2--------------2-----|-----2--------------2-----*||-----2--------------2------|
--0-----------------------|--0------------------------||--0------------------------|
--------------------------|---------------------------||---------------------------|


  III                         V                                                      
  E   E  E  E  E  E  E  E     S  S E  E  E  E  E  E  S S    E  E  E  E  E  E  E  E   
--3------------------------|-----------------------------|--0-----------------------|
--5---------5--------5--3--|--5h-7-5---------------------|--------------------3--1--|
------5--------5-----------|--6----------6--------6------|--2--------2--------2-----|
---------5--------5--------|-------7--------7--------7---|-----3--------3--------3--|
--3------------------------|----------7--------7-------7-|--------3--------3--------|
---------------------------|--5--------------------------|--1-----------------------|


                                 III                         V                           
  S  S E  E  E  E  E  E  S  S    E   E  E  E  E  E  E  E     S  S E  E  E  E  E  E  S S  
-------------------------0h-2-|--3------------------0-----|-----------------------------|
--0h-1-0-----3--0--------3----|--5---------5-----------3--|--5h-7-5---------------------|
-------0-----------0----------|------5--------5-----------|--6----------6--------6------|
----------0-----------0-------|---------5--------5--------|-------7--------7--------7---|
------------------------------|--3------------------------|----------7--------7-------7-|
--3---------------------------|---------------------------|--5--------------------------|


  I                                                         VIII                        
                                                 ^                                      
  E  E  E  E  E  E  E  S  S    E  E  E  E  E  E  E  S  S    E    E  E  E  S S Q    S S  
--5--------------------0h-5-|--7-----------7--------3h-5-|--8-------------7----------8-|
--1--------1--------1-------|--0--------0--------3-------|-----------------------------|
-----2--------2--------2----|-----0--------0-----2-------|----------0---------7----7---|
--------3--------3----------|--------0--------0--0-------|-------------7----0----------|
----------------------------|----------------------------|--8--------------------------|
--1-------------------------|--3-----------------3-------|-------8--------3------------|


  V                                                                             
  E  E  E  E  E  E  E  E     E  E  E  E  E  E  Q       E  E  E  E  E  E  E  E   
--5-----------------------|--0----------------------|--------------------------|
--------------------------|-----------0--L----------|--------------2-----------|
--------------6-----------|--------0--------0-------|--2-----2--------2-----2--|
--7-----7--------7-----7--|-----0--------------0----|-----2-----2--------2-----|
-----7-----7--------7-----|-------------------------|--0-----------------------|
--5-----------------------|--3----------------------|--------------------------|


  E  E  Q    S S S S Q       Q    Q      
--0-----------------------|------------||
-------------------3-L----|--L---------||
--------2------0-2--------|------------||
-----0---------0----------|------------||
--------------------------|------------||
--3----------3------------|------------||

Legend
---------------
Q - quarter
E - 8th
S - 16th
. - note dotted
L - tied note
h - hammer on
^ - brush up
v - brush down
  - A number upside indicate the place of a Bar chords on the neck

(.gp5 & .pdf files contains examples of choice about left hand fingering for hardest parts)
Login or Register to remove this ad.

3 comments on Resurging of Kakariko Village

oh I c a mistake, bar N° 14

oh I c a mistake, bar N° 14 is easier to play like this (with a "III" = bar chords on 3rd fret):

  III                                                                          
  E   E  E  E  E  E  E  E  
--3------------------------|
--5---------5--------5--3--|
------5--------5-----------|
---------5--------5--------|
--3------------------------|
---------------------------|

If you want to, upload an

If you want to, upload an updated zip file on the original submission topic.

ah yep good idear, I ll do

ah yep good idear, I ll do for next tab with more mistakes. Here maybe not necessary to give another task for website admins for just a little mistake. It reminds me also I have another tab to fix (a really ugly tab lol), Auriplane gave me tools to fix it : http://www.gametabs.net/ultima-iii-exodus/town . Here's a real "fix" job for me ^^ I'll can do that these days