Ads

Ilia's Theme (Legend of Zelda: Twilight Princess) Guitar Tab

Submitted: Mar 15, 2011 by 60NCA10

4.6
Average: 4.6 (5 votes)
Download | Listen
Game: Legend of Zelda: Twilight Princess
Composer(s): Koji Kondo, Asuka Ohta, Toru Minegishi
Style: Arrangement, Fingerstyle
Series: Legend of Zelda

Click here for a video example.

AutoScroll: Slow | Medium | Fast



              THE LEGEND OF ZELDA: TWILIGHT PRINCESS
                          "Ilia's Theme"


                Original song by: Toru Minegishi

                  Fingerstyle Arrangement by:
                        Gonçalo Martins
                       October 23rd 2007





     H.           E  E     E  E  E  Q.     E  E     E  E  E  Q.     E  E   
E||---------------------|------------------------|------------------------|
B||---------------1--0--|------------------1--0--|------------------1--0--|
G||---------------------|--0-----0--2------------|--0-----0--2------------|
D||---------------------|------------------------|------------------------|
A||---------------------|-----3------------------|-----3------------------|
E||---------------------|--1---------------------|--0---------------------|


  E  E  E  E  E  E  E  E     E  E  E  Q.     E  E     E  E  E  Q.     E  E   
--------------------------|-----------0------------|------------------------|
--------------------------|--------3---------1--0--|------------------1--0--|
--0--------2-----------2--|--0--0------------------|--0-----0--2------------|
--------3--------3--2-----|------------------------|------------------------|
-----3--------------------|--3---------------------|-----3------------------|
--------------3-----------|------------------------|--1---------------------|


  E  E  E  Q.     E  E     E  E  E  E  E  E  E  E     E  E  E  Q    E  E  E   
------------------------|--------------------------|-----------0-------------|
------------------1--0--|--------------------------|--------3----------------|
--0-----0--2------------|--0--------2--------------|-----0----------0--------|
------------------------|--------3-----0--2--3--2--|-------------------------|
-----3------------------|-----3--------1-----------|--3----------------3--3--|
--0---------------------|--------------------------|-------------------------|


  E  E  E  Q    E  E  E     E  E  E  Q    E  E  E     E  E  E  E  E  E  E  E   
-------------------------|-----------0-------------|-----------0--------------|
--------1--3-------------|--------3----------------|--------1-----------------|
--0-------------------2--|--0--0----------------2--|--0--2--------------2-----|
--0--3----------3--2-----|--2-------------3--2-----|--3--------------3--2-----|
-------------------------|-------------------------|--------------1--------0--|
-------------------------|-------------------------|--------------------------|


  E  E  E  Q.     E  E     E  E  E  Q    E  E  E     E  E  E  Q    E  E  E   
------------------------|-------------------------|----------------------0--|
-----------1---------0--|--1-------------0-----3--|--1----------------3-----|
--------0---------2-----|--------0--2----0--2-----|--------0--2----0--------|
--2--2------------------|-------------------------|-------------------------|
--0---------------------|-----3-------------3-----|-----3-------------3-----|
------------------------|--1----------------------|--0----------------------|


                                         ^                              
  E  E  E  S E.  E  E  E     E  E  E  E  H           W                  
--1----------3---------1--|--------------5--------|--L----------------||
--------------------3-----|--3--------1--6--------|--L----------------||
-----------2-----3--------|--------2-----5--------|--L----------------||
--------3-----------------|-----0-----------------|-------------------||
-----1--------------------|-----------------------|-------------------||
--------------------------|--3--------------------|-------------------||




Duration Legend
---------------
W - whole
H - half
Q - quarter
E - 8th
. - note dotted


Tablature Legend
----------------
L - tied note
^ - brush up


Login or Register to remove this ad.