Ads

Hyrule Field (Legend of Zelda: Twilight Princess) Guitar Tab

Submitted: Aug 08, 2014 by Champinoir

4
Average: 4 (1 vote)
Download | Listen
Game: Legend of Zelda: Twilight Princess
Composer(s): Koji Kondo, Asuka Ohta, Toru Minegishi
Style: Transcription
Series: Legend of Zelda

AutoScroll: Slow | Medium | Fast
Main Theme - Hyrule Field
The Legend of Zelda : Twilight Princess
Composer : Koji Kondo
Tabbed by Champinoir
05/08/2014

e---3-2--------------3-2-----2-3-5--7-------------
B-0-----3-2-0---2--0-----3-5----------------------
G-------------2-----------------------------------
D-------------------------------------------------
A-------------------------------------------------
E-------------------------------------------------
E-------------------------------------------------

e---8-7-3-5--3-5-2----3-2--------------3-2-----2-3-5-
B-6-----------------0-----3-2-0---2--0-----3-5-------
G-------------------------------2--------------------
D----------------------------------------------------
A----------------------------------------------------
E----------------------------------------------------
E----------------------------------------------------

e-7-9-10--14-12-------10-9----(3-3-5-7)-(7-7-9-10)-(5-5-7-9)-(9-9-10-12)-
B-------------------8------7---------------------------------------------
G---------------14-------------------------------------------------------
D------------------------------------------------------------------------
A------------------------------------------------------------------------
E------------------------------------------------------------------------
E------------------------------------------------------------------------

e-----------------------------------------------------
B-----------------------------------------------------
G-----------------------------------------------------
D-----------1-2--1-------1-2-4------------1-2-4-1-2-1-
A-4-2-0-2-4--------4-2-4--------4-2-0-2-4-------------
E-----------------------------------------------------
E-----------------------------------------------------

e----------------9-10--9----------9-10-12-----------------9-10-12-9-10-9-
B-12-10----10-12---------12-10-12----------12-10----10-12----------------
G-------12---------------------------------------12----------------------
D------------------------------------------------------------------------
A------------------------------------------------------------------------
E------------------------------------------------------------------------
E------------------------------------------------------------------------

e-5-------5-7-9---5-4-0-5-------5-7-9---5-4-0-5-
B---8-7-8---------------3-8-7-8---------------3-
G---------------6---------------------6---------
D-----------------------------------------------
A-----------------------------------------------
E-----------------------------------------------
E-----------------------------------------------

e-3-1-3-5-6-8---8-7-----------------------------
B-------------5-----8-7--5-3-2------------------
G-----------------------------------------------
D-----------------------------------------------
A-----------------------------------------------
E-----------------------------------------------
E-----------------------------------------------


3:18
e---0-2-5--0---------------0-2-5--9-9--7-9-10---
B-3----------3-2--1-0----3----------------------
G---------------------2-------------------------
D-----------------------------------------------
A-----------------------------------------------
E-----------------------------------------------
E-----------------------------------------------

e---3-2--------6-5-----------------2-3-5---------------13-15-17-
B-0-----3-2--3-----6-5----3----3-5--------15-----15-17----------
G---------------------------2----------------14-----------------
D---------------------------------------------------------------
A---------------------------------------------------------------
E---------------------------------------------------------------
E---------------------------------------------------------------
Login or Register to remove this ad.

1 comment on Hyrule Field

:)

4

It's a very nice tab, thank you!