Ads

Agitha's Castle (Legend of Zelda: Twilight Princess) Guitar Tab

Submitted: Mar 16, 2011 by natenmn

4.833335
Average: 4.8 (6 votes)
Download | Listen
Game: Legend of Zelda: Twilight Princess
Composer(s): Koji Kondo, Asuka Ohta, Toru Minegishi
Style: Arrangement, Fingerstyle
Series: Legend of Zelda

AutoScroll: Slow | Medium | Fast
         Agitha's Castle - The Legend of Zelda: Twilight Princess
                                Koji Kondo                          
                       (Arranged by Nathan Nordstrom)


Tab: Nathan Nordstrom
3/16/2011                                                          
                                                                 

                                                                                                    
Acoustic Guitar 1 (Capo 5)


    3/4 135bpm

      E   E  E   E  E   E     E   E  E   E  E   E     E   E  E   E  E   E   
E||------------------------|-----------------------|-----------------------|
B||---0h--1--0h--1--0h--1--|--0h--1--0h--1--2h--3--|--2h--3--2h--3--2h--3--|
G||*-----------------------|-----------------------|-----------------------|
D||*-----------------------|-----------------------|-----------------------|
A||------------------------|-----------------------|--0--------------------|
E||---3--------------------|-----------------------|-----------------------|


                         ^                                    
  E   E  E   E  E  E     Q    E   E  E  E     Q    Q.     E   
-------------------0--|--3----2p--0-----0--|-----------------|
--2h--3--2h--3--4-----|--0-----------3-----|--0-----------0--|
----------------------|--------------------|-----------------|
----------------------|--0----0------------|-------0---------|
----------------------|--------------2-----|-----------------|
----------------------|--3-----------------|--3--------------|


                                           ^              ^               
  Q    Q    E  E     Q    H           Q    Q    E   E     Q    Q    Q     
------------------|--0-------------|-------0----2h--3--|--5--------------|
--2----3-------4--|----------------|-------1-----------|--3----3---------|
------------------|----------------|-------------------|-----------------|
-------2----------|-------2--------|-------2-----------|-------4----0----|
--4---------4-----|--0-------------|--3---------3------|--2--------------|
------------------|----------------|-------------------|-----------------|


       ^             ^                 ^                                    
  Q    Q    E  E     Q    Q    Q       Q    E   E  E  E     Q    Q.     E   
---------------0--|--2--------------|--3----2p--0-----0--|-----------------|
-------1----3-----|--3----0---------|--0-----------3-----|--0-----------0--|
-------2----------|-----------------|--------------------|-----------------|
-------2----------|-------0---------|--0----0------------|-------0---------|
--0---------3-----|------------2----|--------------2-----|-----------------|
------------------|--3--------------|--3-----------------|--3--------------|


                                           ^              ^                
  Q    Q    E  E     Q    H           Q    Q    E   E     Q    Q    E  E   
------------------|--0-------------|-------0----2h--3--|--5------------2--|
--2----3-------4--|----------------|-------1-----------|--3----3----------|
------------------|----------------|-------0-----------|------------------|
-------2----------|-------2--------|------------2------|--2----0----------|
--4---------4-----|--0-------------|--3----------------|------------0-----|
------------------|----------------|-------------------|------------------|


  ^                   ^                                                    
  Q    E  E  E  E     H.              Q    Q    E  E     Q    Q    E   E   
--3----------------|---------------|--3----2-------0--|--3---------0h--2--|
--0----0-----0-----|--0------------|------------------|-------------------|
----------5-----5--|--4------------|------------------|-------------------|
-------------------|---------------|-------2----------|-------2-----------|
-------------------|---------------|--3---------------|--4----------------|
--3----------------|--3------------|------------3-----|------------3------|


  Q    Q    E  E     Q    Q    Q       Q    Q    E  E     Q    Q    E   E   
--3----2-------0--|--2--------------|--5----3-------2--|--5---------1h--3--|
------------------|-----------------|------------------|-------------------|
------------------|-----------------|------------------|-------------------|
--0----4----------|--1----4---------|------------------|-------------------|
------------0-----|------------0----|-------2----2-----|-------2----2------|
------------------|-----------------|--0---------------|--1----------------|


  Q    Q    E  E     Q    E  E  E  E     Q    Q    E  E     Q    Q    E   E   
--5----7-------5--|-------------------|--3----2-------0--|--3---------0h--2--|
------------------|--3----------------|--5----3----------|--5---------1------|
------------------|-------------------|------------------|-------------------|
------------------|----------------0--|-------2----------|-------2-----------|
-------3----3-----|-------2--3--4-----|--3---------------|--4----------------|
--2---------------|--3----------------|------------3-----|------------3------|


                                       ^                 ^               
  Q    Q    E  E     Q    Q    Q       Q    Q    Q       Q    Q    Q     
--3----2-------0--|--2--------------|-----------------|-----------------|
--5----3----------|--4--------------|--1----0---------|--0--------------|
------------------|-----------------|--2---------2----|--0---------0----|
--0----4----------|--1----4---------|-----------------|-------0---------|
------------0-----|------------0----|-------2----2----|-------2----2----|
------------------|-----------------|--0--------------|--1--------------|


  ^                                                         ^               
  Q    E  E  E  E     Q    E  E  E  E     Q    Q    Q       H.              
-------------------|-------------------|-----------------|----------------||
----------1--------|----------1--------|-----------------|--3-------------||
--0----0-----0-----|--0----0--------0--|--2--------------|--2------------*||
--2----------------|-------0-----4-----|-----------------|--0------------*||
-------3-----3--3--|-------------------|-------0---------|--0-------------||
--0----------------|--3----------3-----|--2---------3----|----------------||


  E   E  E   E  E   E     E   E  E   E  E   E     E   E  E   E  E   E   
-----------------------|-----------------------|-----------------------|
--0h--1--0h--1--0h--1--|--0h--1--0h--1--2h--3--|--2h--3--2h--3--2h--3--|
-----------------------|-----------------------|-----------------------|
-----------------------|-----------------------|-----------------------|
-----------------------|-----------------------|--0--------------------|
--3--------------------|-----------------------|-----------------------|


                         ^                                                      
  E   E  E   E  E  E     Q    E  E  E  E     Q    Q.     E     Q    Q    E  E   
-------------------0--|--3----2--0-----0--|-----------------|------------------|
--2h--3--2h--3--4-----|--0----------3-----|--0-----------0--|--2----3-------4--|
----------------------|-------------------|-----------------|------------------|
----------------------|--0----0-----------|-------0---------|-------2----------|
----------------------|-------------2-----|-----------------|--4---------4-----|
----------------------|--3----------------|--3--------------|------------------|


                        ^             ^                  ^             
  Q    H           Q    Q    E  E     Q    Q    E  E     H.            
--0-------------|-------0----2--3--|--5------------2--|--3------------|
----------------|-------1----------|--3----3----------|--0------------|
----------------|-------0----------|------------------|---------------|
-------2--------|------------2-----|--2----0----------|---------------|
--0-------------|--3---------------|------------0-----|---------------|
----------------|------------------|------------------|--3------------|


  H.                             
--L------------|---------------||
--L------------|---------------||
---------------|---------------||
---------------|---------------||
---------------|---------------||
--L------------|---------------||




Duration Legend
---------------
W - whole
H - half
Q - quarter
E - 8th
S - 16th
T - 32nd
X - 64th
. - note dotted
|-n-|  - n-tuplets


Tablature Legend
----------------
L - tied note
x - dead note
g - grace note
(n) - ghost note
> - accentuded note
NH - natural harmonic
AH - artificial harmonic
TH - tapped harmonic
SH - semi harmonic
PH - pitch harmonic
h - hammer on
p - pull off
b - bend
br - bendRelease
pb - preBend
pbr - preBendRelease
brb - bendReleaseBend
\n/ - tremolo bar dip
\n - tremolo bar dive
-/n - tremolo bar Release up
/n\ - tremolo bar inverted dip
/n - tremolo bar return
-\n - tremolo bar Release down
S - shift slide
s - legato slide
/ -  slide into from below or out of upwards
\ -  slide into from above or out of downwards
~ - vibrato
W - wide vibrato
tr - trill
TP - tremolo picking
T - tapping
S - slap
P - pop
< - fade in
^ - brush up
v - brush down
Login or Register to remove this ad.

1 comment on Agitha's Castle

Great tab! Here's my take on

Great tab! Here's my take on it

https://soundcloud.com/mickegitarr/legend-of-zelda-twilight-princess-agithas-castle