Ads

Final Preparations (Legend of Zelda: Spirit Tracks) Guitar Tab

Submitted: Sep 24, 2010 by hslesperance (Last updated: Aug 11, 2014)

5
Average: 5 (2 votes)
Download | Listen
Game: Legend of Zelda: Spirit Tracks
Composer(s): Koji Kondo, Asuka Ohta, Toru Minegishi, Manaka Tominaga
Style: 2 or more instruments, Transcription
Series: Legend of Zelda

AutoScroll: Slow | Medium | Fast
Final Preparations
The Legend of Zelda: Spirit Tracks
Composed by Toru Minegishi, Manaka Tominaga, Asuka Ota, Koji Kondo
Tabbed by hslesperance
9/24/10

Standard Tuning


Guitar 1

e----------------------------------------------------------------------------
B---3------------------3--1---1----------------3------------------3--2---2---
G----------------2--2-------3-------------------------------3--3-------4-----
D----------------------------------------------------------------------------
A----------------------------------------------------------------------------
E----------------------------------------------------------------------------

e---10-------------------10--8-6-8-------------10-------------------10--9-7-9
B----------------10--10-------------------------------------11--11-----------
G----------------------------------------------------------------------------
D----------------------------------------------------------------------------
A----------------------------------------------------------------------------
E----------------------------------------------------------------------------

e-------------------------------5----8----5-------5--------------------------
B------6-----------8--------6-8---------------8------------------------------
G---------------7------------------------------------5-----------------------
D---7------------------------------------------------------------------------
A----------------------------------------------------------------------------
E----------------------------------------------------------------------------

e-------------------------------5------8--5----------8-----------------------
B------6-----------8--------6-8---------------8---6--------------------------
G---------------7------------------------------------------------------------
D---7------------------------------------------------------------------------
A----------------------------------------------------------------------------
E----------------------------------------------------------------------------

e-------------------------------5----8----5-------5--------------------------
B------6-----------8--------6-8---------------8------------------------------
G---------------7------------------------------------5-----------------------
D---7------------------------------------------------------------------------
A----------------------------------------------------------------------------
E----------------------------------------------------------------------------

e-------------------------------5------8--5----------8-----------------------
B------6-----------8--------6-8---------------8---6--------------------------
G---------------7------------------------------------------------------------
D---7------------------------------------------------------------------------
A----------------------------------------------------------------------------
E----------------------------------------------------------------------------


Guitar 2

e-------------2-----------------0--------------------------------------------
B---3-------5----------1---------------------------3--------------0--2-------
G------2--4---------------0--2-----------------0-2---------------------------
D-------------------------------------------3------------------2----------2--
A----------------------------------------1------------------0----------------
E----------------------------------------------------------------------------

e-------------2-------------0---------------------------------------7--9-----
B---3-------5------1-----3-----------------3----------0--2----5--7-----8-----
G------2--4-----------0----------------0-2-----------------------------6-----
D-----------------------------------3--------------2-------------------------
A--------------------------------1--------------0----------------------------
E----------------------------------------------------------------------------

e-----------------------------------------------------------------------0----
B-----------------3-----------------3-----------------1----------------------
G--------------0-----------------0-----------------0-----------------0-------
D-----------3-----------------3-----------------3-----------------3----------
A---0----1-----------------1-----------------0-----------------0-------------
E----------------------------------------------------------------------------

e----------------------------------------------------------------------------
B------------3-----------------3-----------------1--------------1--4---------
G---------0-----------------0-----------------0------------------------------
D------3-----------------3-----------------3--------------0--4---------------
A---1-----------------1-----------------0------------------------------------
E----------------------------------------------------------------------------

e-------------------------------------------------------------------------0--
B------------3-----------------3-----------------1-----------------1-0-1-----
G---------0-----------------0-----------------0-----------------0------------
D------3-----------------3-----------------3-----------------3---------------
A---1-----------------1-----------------0-----------------0------------------
E----------------------------------------------------------------------------

e------------------------------------------------------------------2-3----5--
B------------3-----------------3-----------------1--------------1------------
G---------0-----------------0-----------------0------------------------------
D------3-----------------3-----------------3--------------0--4---------------
A---1-----------------1-----------------0------------------------------------
E----------------------------------------------------------------------------

e---6--------------------------------------------5-6-8-----------------------
B------6--------------6------------6---------6-8----------------------6------
G---3-----------5-7-8--------5-----3--5---------------------7---5-----5--5---
D---5---------8-----------------8--3--------------------------------3-3------
A----------------------------------------------------------------------------
E----------------------------------------------------------------------------

e---------4-6-8--------6----4----3-----------------1-------------------------
B---6-6-8------------------------1------------4----1-------------------------
G--------------------------------------------------3------2-0-2--------------
D----------------------------------------------------------------------------
A--------------------------------3-------------------------------------------
E----------------------------------------------------------------------------


Guitar 3

e------------------------------------------------------------------------------------
B---------3--------3-----------3--------3------------1--------1-----------1-------1--
G---------0--------0-----------0--------0------------0--------0-----------0-------0--
D------3-------3------------3---------------------3--------------------3-------------
A---1------------------1------------1-------1--0----------0-------0------------0-----
E------------------------------------------------------------------------------------

e------------------------------------------------------------------------------------
B---------3--------3-----------3--------3------------1--------1-----------1-------1--
G---------0--------0-----------0--------0------------0--------0-----------2-------2--
D------3-------3------------3---------------------3--------------------0-------0-----
A---1------------------1------------1-------1--0----------0-------0------------------
E------------------------------------------------------------------------------------

e------------------------------------------------------------------------------------
B---------3--------3-----------3--------3------------1--------1-----------1-------1--
G---------0--------0-----------0--------0------------0--------0-----------0-------0--
D------3-------3------------3---------------------3--------------------3-------------
A---1------------------1------------1-------1--0----------0-------0------------0-----
E------------------------------------------------------------------------------------

e------------------------------------------------------------------------------------
B---------3--------3-----------3--------3------------1--------1--------1----1--------
G---------0--------0-----------0--------0------------0--------0--------2----2--------
D------3-------3------------3---------------------3------------------------------0---
A---1------------------1------------1-------1--0----------0-------0------------------
E------------------------------------------------------------------------------------

e------------------------------------------------------------------------------------
B------------------------------------------------------------------------------------
G------------------------------------------------------------------------------------
D---1------1--1------------1--1----------------0--0----------------0--0--------------
A------------------------------------------------------------------------------------
E------------------------------------------------------------------------------------

e------------------------------------------------------------------------------------
B------------------------------------------------------------------------------------
G------------------------------------------------------------------------------------
D-------------------------------------------------------------3----------------------
A---4--4----------------4--4----------------3--3-------------------3-----------------
E---------------------------------------------------------------------1--------------


Guitar 4

0:47
e-----------13--12p10h12-----------------------------------------------------
B---13--13-------------------------------------------------------------------
G----------------------------------------------------------------------------
D----------------------------------------------------------------------------
A----------------------------------------------------------------------------
E----------------------------------------------------------------------------
0:57
e------5-------------------5-------------------------------------------------
B---------8--7--------8------------------------------------------------------
G---5------------------------------------------------------------------------
D----------------------------------------------------------------------------
A----------------------------------------------------------------------------
E----------------------------------------------------------------------------
1:10
e----------------------------------------------------------------------------
B---------------------------10-11-11/13--------13h14p13-11-------------------
G---10-------------10-10-12-----------------------------------13----12-------
D---------10-----------------------------------------------------------------
A----------------------------------------------------------------------------
E----------------------------------------------------------------------------

h - hammer on
p - pull off
Login or Register to remove this ad.