Ads

Horon Village (Legend of Zelda: Oracle of Seasons) Guitar Tab

Submitted: Jun 27, 2021 by judgexii (Last updated: Jul 09, 2021)

5
Average: 5 (2 votes)
Download | Listen
Game: Legend of Zelda: Oracle of Seasons
Composer(s): M-Adachi, Kyopi
Style: Fingerstyle
Series: Legend of Zelda

AutoScroll: Slow | Medium | Fast
"Horon Village" - Legend of Zelda: Oracle of Seasons
Composers : Pure Sound Inc.
Arrangement : judgexii
Tuning : Standard EADGBe
BPM : 111 (4/4 time)


   e  e  e  e  e  e  e  e        e  e  e  e  e  e  e  e        e  e  e  e  e  e  e  e        e  e  e  e  e  e  e  e
e--------2--------------0-----|--------2--------------------|--------2-----9--7-----------|--------------------0--2-----|
B--4-----------2-----4--------|--4-----------2-----0--2-----|--4-----------------7--------|--7-----5--4--2--------------|
G-----------------------------|-----------------------------|-----------------------8-----|-----------------------------|
D-----4-----4-----4-----4-----|-----4-----4-----------------|-----4-----------------------|-----6-----6-----------------|
A--2-----2-----1--------------|--2-----2-----1--------1-----|--2-----2--1-----6-----6-----|--4-----4-----------1--2-----|
E--------------------2--------|-----------------2--4--------|--------------4-----4--------|--------------2--4-----------|
   e  e  e  e  e  e  e  e        e  e  e  e  e  e  e  e        e  e  e  e  e  e  e  e        s s s s e  e  e  e  e  e
e--4-----11----9-----6--4-----|--2-----9-----7-----7--6-----|--4-----9-----4-----9--------|--2-4-2-4-2-----2------------||
B-----------------------------|-----------------------------|-----2-----------2-----------|-----------------------------||
G-----------------------------|-----------------------------|-----------6-----------6-----|-----------------------------||
D-----2-----------------------|--1--2-----8-----------------|--2--------------------------|------4------4-----4-----4---||
A--4--------------------4-----|--------9--------------4-----|--------6-----4--------------|--1-------2-----3-----4------||
E--------9--7--6--9--2--------|--------------4--6--7--------|--------------------7--------|-----------------------------|| Repeat


Note Legend
-----------
w - whole
h - half
q - quarter
e - eighth
. - dotted

Tab Legend
-----------
() - continue holding note
h - hammer on
p - pull off
/ - slide up
\ - slide down
<> - natural harmonic
^ - brush up
Login or Register to remove this ad.