Dancing Dragon Dungeon (Legend of Zelda: Oracle of Seasons) Bass/Guitar Tab

Submitted: Jun 03, 2012 by fanapathy (Last updated: Oct 22, 2014)

5
Average: 5 (2 votes)
Download | Listen
Game: Legend of Zelda: Oracle of Seasons
Composer(s): M-Adachi, Kyopi
Style: 2 or more instruments, Alternate picking, Tapping, Transcription
Series: Legend of Zelda

AutoScroll: Slow | Medium | Fast
Title: Dancing Dragon Dungeon
SubTitle: 4th level Oracle of Seasons
Artist: M-Adachi / Kyopi
Tabber: fanapathy / [email protected]
Tempo = 101

Lead
     H        S S                                       S S S S S S  
E||-----------------------------------------------------------------|
B||---------------------------------------------------------------8-|
G||---------------------------------------------------------5---5---|
D||-------------7-----------------------------------------7---7-----|
A||-----------------------------------------------------------------|
E||-----------------------------------------------------------------|


  H         S S S S T  T  S S S    H         S S S S S S S S  
--------------------------------|----------------------------|
--7~--------------8-7h-8p-7-5---|--5~----------------------5-|
----------------5-------------7-|--------------------5---5---|
--------------7-----------------|--------------7---7---7-----|
--------------------------------|----------------------------|
--------------------------------|----------------------------|


  E  S S E  S S E  S S T  T  T  T  S S    H         S S S S S S S S  
---------------------------------------|--------------------------8-|
--8----7-8----7-8----7-8p-7h-8p-7p-5---|--5~----------------5---5---|
-------------------------------------7-|--------------5---5---5-----|
---------------------------------------|----------------------------|
---------------------------------------|----------------------------|
---------------------------------------|----------------------------|


  H         S S S S S S S S    H         S S S S S S S S  
----------------------------|--------------------------5-|
--9~----------------5---5-9-|--8~----------------5---5---|
--------------5---5---5-----|--------------5---5---5-----|
----------------------------|----------------------------|
----------------------------|----------------------------|
----------------------------|----------------------------|


  H         E.  S S  T  T  S S    H         H         
-------------------------------|---------------------|
--7~------------5-7h-8p-7p-5---|--5~-----------------|
-----------------------------7-|---------------------|
-------------------------------|---------------------|
-------------------------------|---------------------|
-------------------------------|---------------------|


  Tapping is the easy part :)                                                   
                              T    T    T    T    T    T    T    T    T    T    
  T                           T  T T  T T  T T  T T  T T  T T  T T  T T  T T  T 
--5---------------------------8p-5-8p-5-8p-5-8p-5-8p-5-8p-5-8p-5-8p-5-8p-5-8p-5-
--------------------------------------------------------------------------------
--------------------------------------------------------------------------------
--------------------------------------------------------------------------------
--------------------------------------------------------------------------------
--------------------------------------------------------------------------------


    T    T    T    T    T    T    T    T    T    T    T    T    T    T    T    T
  T T  T T  T T  T T  T T  T T  T T  T T  T T  T T  T T  T T  T T  T T  T T  T T
--4-8p-4-8p-4-8p-4-8p-4-8p-4-8p-4-8p-4-8p-4-8p-4-8p-4-8p-4-8p-4-8p-4-8p-4-8p-4-8
--------------------------------------------------------------------------------
--------------------------------------------------------------------------------
--------------------------------------------------------------------------------
--------------------------------------------------------------------------------
--------------------------------------------------------------------------------


    T    T    T    T    T    T    T    T    T    T    T    T    T    T    T    T
  T T  T T  T T  T T  T T  T T  T T  T T  T T  T T  T T  T T  T T  T T  T T  T T
--3-8p-3-8p-3-8p-3-8p-3-8p-3-8p-3-8p-3-8p-3-8p-3-8p-3-8p-3-8p-3-8p-3-8p-3-8p-3-8
--------------------------------------------------------------------------------
--------------------------------------------------------------------------------
--------------------------------------------------------------------------------
--------------------------------------------------------------------------------
--------------------------------------------------------------------------------


    T    T    T    T    T    T    T    T    T    T    T    T    T    T    T    T
  T T  T T  T T  T T  T T  T T  T T  T T  T T  T T  T T  T T  T T  T T  T T  T T
--4-8p-4-8p-4-8p-4-8p-4-8p-4-8p-4-8p-4-8p-4-8p-4-8p-4-8p-4-8p-4-8p-4-8p-4-8p-4-8
--------------------------------------------------------------------------------
--------------------------------------------------------------------------------
--------------------------------------------------------------------------------
--------------------------------------------------------------------------------
--------------------------------------------------------------------------------


    T    T    T    T    T    T    T    T    T    T    T    T    T    T    T    T
  T T  T T  T T  T T  T T  T T  T T  T T  T T  T T  T T  T T  T T  T T  T T  T T
--5-8p-5-8p-5-8p-5-8p-5-8p-5-8p-5-8p-5-8p-5-8p-5-8p-5-8p-5-8p-5-8p-5-8p-5-8p-5-8
--------------------------------------------------------------------------------
--------------------------------------------------------------------------------
--------------------------------------------------------------------------------
--------------------------------------------------------------------------------
--------------------------------------------------------------------------------


    T    T    T    T    T    T    T    T    T    T    T    T    T    T    T    T
  T T  T T  T T  T T  T T  T T  T T  T T  T T  T T  T T  T T  T T  T T  T T  T T
--4-8p-4-8p-4-8p-4-8p-4-8p-4-8p-4-8p-4-8p-4-8p-4-8p-4-8p-4-8p-4-8p-4-8p-4-8p-4-8
--------------------------------------------------------------------------------
--------------------------------------------------------------------------------
--------------------------------------------------------------------------------
--------------------------------------------------------------------------------
--------------------------------------------------------------------------------


    T    T    T    T    T    T    T    T    T    T    T    T    T    T    T    T
  T T  T T  T T  T T  T T  T T  T T  T T  T T  T T  T T  T T  T T  T T  T T  T T
--3-8p-3-8p-3-8p-3-8p-3-8p-3-8p-3-8p-3-8p-3-8p-3-8p-3-8p-3-8p-3-8p-3-8p-3-8p-3-8
--------------------------------------------------------------------------------
--------------------------------------------------------------------------------
--------------------------------------------------------------------------------
--------------------------------------------------------------------------------
--------------------------------------------------------------------------------


     T     T     T     T     T     T     T     T                    
  T  T  T  T  T  T  T  T  T  T  T  T  T  T  T  T   S S S S S S S S  
--2-10p-2-10p-2-10p-2-10p-2-10p-2-10p-2-10p-2-11h-12---------------|
-----------------------------------------------------------------8-|
-----------------------------------------------------------5---5---|
-----------------------------------------------------7---7---7-----|
-------------------------------------------------------------------|
-------------------------------------------------------------------|


  H         S S S S T  T  S  S S    H         S S S S S S S S  
---------------------------------|----------------------------|
--7~--------------8-7h-8p-7p-5---|--5~----------------------5-|
----------------5--------------7-|--------------------5---5---|
--------------7------------------|--------------7---7---7-----|
---------------------------------|----------------------------|
---------------------------------|----------------------------|


  E  S S E  S S E  S S T  T  T  T  S S    H         S S S S S S S S  
---------------------------------------|--------------------------8-|
--8----7-8----7-8----7-8p-7h-8p-7p-5---|--5~----------------5---5---|
-------------------------------------7-|--------------5---5---5-----|
---------------------------------------|----------------------------|
---------------------------------------|----------------------------|
---------------------------------------|----------------------------|


  H         S S S S S S S S    H         S S S S S S S S  
----------------------------|--------------------------5-|
--9~----------------5---5-9-|--8~----------------5---5---|
--------------5---5---5-----|--------------5---5---5-----|
----------------------------|----------------------------|
----------------------------|----------------------------|
----------------------------|----------------------------|


  H         E.  S S  T  T  S S    H         H         
-------------------------------|---------------------|
--7~------------5-7h-8p-7p-5---|--5~-----------------|
-----------------------------7-|---------------------|
-------------------------------|---------------------|
-------------------------------|---------------------|
-------------------------------|---------------------|


    T    T    T    T    T    T    T    T    T    T    T    T    T    T    T    T
  T T  T T  T T  T T  T T  T T  T T  T T  T T  T T  T T  T T  T T  T T  T T  T T
--5-8p-5-8p-5-8p-5-8p-5-8p-5-8p-5-8p-5-8p-5-8p-5-8p-5-8p-5-8p-5-8p-5-8p-5-8p-5-8
--------------------------------------------------------------------------------
--------------------------------------------------------------------------------
--------------------------------------------------------------------------------
--------------------------------------------------------------------------------
--------------------------------------------------------------------------------


    T    T    T    T    T    T    T    T    T    T    T    T    T    T    T    T
  T T  T T  T T  T T  T T  T T  T T  T T  T T  T T  T T  T T  T T  T T  T T  T T
--4-8p-4-8p-4-8p-4-8p-4-8p-4-8p-4-8p-4-8p-4-8p-4-8p-4-8p-4-8p-4-8p-4-8p-4-8p-4-8
--------------------------------------------------------------------------------
--------------------------------------------------------------------------------
--------------------------------------------------------------------------------
--------------------------------------------------------------------------------
--------------------------------------------------------------------------------


    T    T    T    T    T    T    T    T    T    T    T    T    T    T    T    T
  T T  T T  T T  T T  T T  T T  T T  T T  T T  T T  T T  T T  T T  T T  T T  T T
--3-8p-3-8p-3-8p-3-8p-3-8p-3-8p-3-8p-3-8p-3-8p-3-8p-3-8p-3-8p-3-8p-3-8p-3-8p-3-8
--------------------------------------------------------------------------------
--------------------------------------------------------------------------------
--------------------------------------------------------------------------------
--------------------------------------------------------------------------------
--------------------------------------------------------------------------------


    T    T    T    T    T    T    T    T    T    T    T    T    T    T    T    T
  T T  T T  T T  T T  T T  T T  T T  T T  T T  T T  T T  T T  T T  T T  T T  T T
--4-8p-4-8p-4-8p-4-8p-4-8p-4-8p-4-8p-4-8p-4-8p-4-8p-4-8p-4-8p-4-8p-4-8p-4-8p-4-8
--------------------------------------------------------------------------------
--------------------------------------------------------------------------------
--------------------------------------------------------------------------------
--------------------------------------------------------------------------------
--------------------------------------------------------------------------------


    T    T    T    T    T    T    T    T    T    T    T    T    T    T    T    T
  T T  T T  T T  T T  T T  T T  T T  T T  T T  T T  T T  T T  T T  T T  T T  T T
--5-8p-5-8p-5-8p-5-8p-5-8p-5-8p-5-8p-5-8p-5-8p-5-8p-5-8p-5-8p-5-8p-5-8p-5-8p-5-8
--------------------------------------------------------------------------------
--------------------------------------------------------------------------------
--------------------------------------------------------------------------------
--------------------------------------------------------------------------------
--------------------------------------------------------------------------------


    T    T    T    T    T    T    T    T    T    T    T    T    T    T    T    T
  T T  T T  T T  T T  T T  T T  T T  T T  T T  T T  T T  T T  T T  T T  T T  T T
--4-8p-4-8p-4-8p-4-8p-4-8p-4-8p-4-8p-4-8p-4-8p-4-8p-4-8p-4-8p-4-8p-4-8p-4-8p-4-8
--------------------------------------------------------------------------------
--------------------------------------------------------------------------------
--------------------------------------------------------------------------------
--------------------------------------------------------------------------------
--------------------------------------------------------------------------------


    T    T    T    T    T    T    T    T    T    T    T    T    T    T    T    T
  T T  T T  T T  T T  T T  T T  T T  T T  T T  T T  T T  T T  T T  T T  T T  T T
--3-8p-3-8p-3-8p-3-8p-3-8p-3-8p-3-8p-3-8p-3-8p-3-8p-3-8p-3-8p-3-8p-3-8p-3-8p-3-8
--------------------------------------------------------------------------------
--------------------------------------------------------------------------------
--------------------------------------------------------------------------------
--------------------------------------------------------------------------------
--------------------------------------------------------------------------------


                                                   And on it goes :)            
     T     T     T     T     T     T     T     T                                
  T  T  T  T  T  T  T  T  T  T  T  T  T  T  T  T   S                S S S S S S 
--2-10p-2-10p-2-10p-2-10p-2-10p-2-10p-2-10p-2-11h-12----------------------------
--------------------------------------------------------------------------------
--------------------------------------------------------------------------------
--------------------------------------------------------------------------------
--------------------------------------------------------------------------------
--------------------------------------------------------------------------------




Duration Legend
---------------
W - whole
H - half
Q - quarter
E - 8th
S - 16th
T - 32nd
X - 64th
. - note dotted
|-n-|  - n-tuplets


Tablature Legend
----------------
L - tied note
x - dead note
g - grace note
(n) - ghost note
> - accentuded note
NH - natural harmonic
AH - artificial harmonic
TH - tapped harmonic
SH - semi harmonic
PH - pitch harmonic
h - hammer on
p - pull off
b - bend
br - bendRelease
pb - preBend
pbr - preBendRelease
brb - bendReleaseBend
\n/ - tremolo bar dip
\n - tremolo bar dive
-/n - tremolo bar Release up
/n\ - tremolo bar inverted dip
/n - tremolo bar return
-\n - tremolo bar Release down
S - shift slide
s - legato slide
/ -  slide into from below or out of upwards
\ -  slide into from above or out of downwards
~ - vibrato
W - wide vibrato
tr - trill
TP - tremolo picking
T - tapping
S - slap
P - pop
< - fade in
^ - brush up
v - brush down

----------------------------------------------------------------------------------

RHYTHM

  Play this with lots of distortion, sounds cool. Yo                     
  >                                                  >                   
  E                                                  E  E  S S H         
------------------------------------------------------------------------|
------------------------------------------------------------------------|
------------------------------------------------------------------------|
-----------------------------------------------------7--5--6-7----------|
-----------------------------------------------------7--5--6-7----------|
--5-----------------------------------------------------3--4-5----------|


  >  >                     >  >                     >  >                   
  E  E  E  S S H           E  E  E  S S H           E  E  E  S S H         
------------------------|------------------------|------------------------|
------------------------|------------------------|------------------------|
------------------------|------------------------|------------------------|
-----7--5--6-7----------|-----7--5--6-7----------|-----7--5--6-7----------|
-----7--5--6-7----------|-----7--5--6-7----------|-----7--5--6-7----------|
--5-----3--4-5----------|--5-----3--4-5----------|--5-----3--4-5----------|


  >  >                     >  >                     >  >                   
  E  E  E  S S H           E  E  E  S S H           E  E  E  S S H         
------------------------|------------------------|------------------------|
------------------------|------------------------|------------------------|
------------------------|------------------------|------------------------|
-----7--5--6-7----------|-----7--5--6-7----------|-----7--5--6-7----------|
-----7--5--6-7----------|-----7--5--6-7----------|-----7--5--6-7----------|
--5-----3--4-5----------|--5-----3--4-5----------|--5-----3--4-5----------|


  >  >                            >                        >                   
  E  E  E  S S Q    S S S S    E  E  E  S S H           E  E  E  S S H         
----------------------------|------------------------|------------------------|
----------------------------|------------------------|------------------------|
----------------------------|------------------------|------------------------|
-----7--5--6-7--------------|-----7------------------|-----7------------------|
-----7--5--6-7--------------|-----7--5--6-7----------|-----7--5--6-7----------|
--5-----3--4-5--------------|------------------------|------------------------|


     >                        >                        >                       
  E  E  E  S S H           E  E  E  S S H           E  E  E  S S Q    S S S S  
------------------------|------------------------|----------------------------|
------------------------|------------------------|----------------------------|
------------------------|------------------------|----------------------------|
-----7------------------|-----7------------------|-----7--------------7---7---|
-----7--5--6-7----------|-----7--5--6-7----------|-----7--5--6-7--------7---7-|
------------------------|------------------------|----------------------------|


     >                            >                       
  E  E  E  S S Q    S S S S    E  E  E  S S Q    S S S S  
----------------------------|----------------------------|
----------------------------|----------------------------|
----------------------------|----------------------------|
-----7--------------6---6---|-----7--------------5---5---|
-----7--5--6-7--------7---7-|-----7--5--6-7--------7---7-|
----------------------------|----------------------------|


     >                     >  >                     >  >                   
  E  E  E  S S H           E  E  E  S S H           E  E  E  S S H         
------------------------|------------------------|------------------------|
------------------------|------------------------|------------------------|
------------------------|------------------------|------------------------|
-----7------------------|-----7--5--6-7----------|-----7--5--6-7----------|
-----7--5--6-7----------|-----7--5--6-7----------|-----7--5--6-7----------|
------------------------|--5-----3--4-5----------|--5-----3--4-5----------|


  >  >                     >  >                     >  >                   
  E  E  E  S S H           E  E  E  S S H           E  E  E  S S H         
------------------------|------------------------|------------------------|
------------------------|------------------------|------------------------|
------------------------|------------------------|------------------------|
-----7--5--6-7----------|-----7--5--6-7----------|-----7--5--6-7----------|
-----7--5--6-7----------|-----7--5--6-7----------|-----7--5--6-7----------|
--5-----3--4-5----------|--5-----3--4-5----------|--5-----3--4-5----------|


  >  >                     >  >                     >  >                       
  E  E  E  S S H           E  E  E  S S H           E  E  E  S S Q    S S S S  
------------------------|------------------------|----------------------------|
------------------------|------------------------|----------------------------|
------------------------|------------------------|----------------------------|
-----7--5--6-7----------|-----7--5--6-7----------|-----7--5--6-7--------------|
-----7--5--6-7----------|-----7--5--6-7----------|-----7--5--6-7--------------|
--5-----3--4-5----------|--5-----3--4-5----------|--5-----3--4-5--------------|


     >                        >                        >                   
  E  E  E  S S H           E  E  E  S S H           E  E  E  S S H         
------------------------|------------------------|------------------------|
------------------------|------------------------|------------------------|
------------------------|------------------------|------------------------|
-----7------------------|-----7------------------|-----7------------------|
-----7--5--6-7----------|-----7--5--6-7----------|-----7--5--6-7----------|
------------------------|------------------------|------------------------|


     >                        >                       
  E  E  E  S S H           E  E  E  S S Q    S S S S  
------------------------|----------------------------|
------------------------|----------------------------|
------------------------|----------------------------|
-----7------------------|-----7--------------7---7---|
-----7--5--6-7----------|-----7--5--6-7--------7---7-|
------------------------|----------------------------|


     >                            >                       
  E  E  E  S S Q    S S S S    E  E  E  S S Q    S S S S  
----------------------------|----------------------------|
----------------------------|----------------------------|
----------------------------|----------------------------|
-----7--------------6---6---|-----7--------------5---5---|
-----7--5--6-7--------7---7-|-----7--5--6-7--------7---7-|
----------------------------|----------------------------|


     >                    
  E  E  E  S S H          
------------------------||
------------------------||
------------------------||
-----7------------------||
-----7--5--6-7----------||
------------------------||


--------------------------------------------------------------------------

BASS

             >  >                     >  >                   
             E  E  E  S S H           E  E  E  S S H         
G||-------|------------------------|------------------------|
D||-------|------------------------|------------------------|
A||-------|--0--0------------------|--0--0------------------|
E||-------|--------3--4-5----------|--------3--4-5----------|


  >  >                     >  >                     >  >                   
  E  E  E  S S H           E  E  E  S S H           E  E  E  S S H         
------------------------|------------------------|------------------------|
------------------------|------------------------|------------------------|
--0--0------------------|--0--0------------------|--0--0------------------|
--------3--4-5----------|--------3--4-5----------|--------3--4-5----------|


  >  >                     >  >                   
  E  E  E  S S H           E  E  E  S S H         
------------------------|------------------------|
------------------------|------------------------|
--0--0------------------|--0--0------------------|
--------3--4-5----------|--------3--4-5----------|


  >  >                                                      
  E  E  E  S S Q    S  S S  S    S S S E.  S S S E.  E  E   
------------------------------|----------------------------|
------------------------------|----------------------------|
--0--0------------------------|--0-0-0-----0-0-0-----------|
--------3--4-5------5p-0-3p-0-|----------------------------|


  S S S E.  S S S E.  E  E     S S S E.  S S S E.  E  E   
----------------------------|----------------------------|
----------------------------|----------------------------|
--0-0-0-----0-0-0-----------|--0-0-0-----0-0-0-----------|
----------------------------|----------------------------|


  S S S E.  S S S E  S S S S S    S S S E.  S S S E.  E  E   
-------------------------------|----------------------------|
-------------------------------|----------------------------|
--0-0-0-----0-0-0--------------|--0-0-0-----0-0-0-----------|
---------------------0-3-0-3-4-|----------------------------|


  S S S E.  S S S E.  E  E     S S S E.  S S S E.  E  E   
----------------------------|----------------------------|
----------------------------|----------------------------|
--0-0-0-----0-0-0-----------|--0-0-0-----0-0-0-----------|
----------------------------|----------------------------|


                               >  >                     >  >                   
  S S S E.  S S S E.  E  E     E  E  E  S S H           E  E  E  S S H         
----------------------------|------------------------|------------------------|
----------------------------|------------------------|------------------------|
--2-2-2-----2-2-------------|--0--0------------------|--0--0------------------|
----------------0-----------|--------3--4-5----------|--------3--4-5----------|


  >  >                     >  >                     >  >                   
  E  E  E  S S H           E  E  E  S S H           E  E  E  S S H         
------------------------|------------------------|------------------------|
------------------------|------------------------|------------------------|
--0--0------------------|--0--0------------------|--0--0------------------|
--------3--4-5----------|--------3--4-5----------|--------3--4-5----------|


  >  >                     >  >                   
  E  E  E  S S H           E  E  E  S S H         
------------------------|------------------------|
------------------------|------------------------|
--0--0------------------|--0--0------------------|
--------3--4-5----------|--------3--4-5----------|


  >  >                                                      
  E  E  E  S S Q    S  S S  S    S S S E.  S S S E.  E  E   
------------------------------|----------------------------|
------------------------------|----------------------------|
--0--0------------------------|--0-0-0-----0-0-0-----------|
--------3--4-5------5p-0-3p-0-|----------------------------|


  S S S E.  S S S E.  E  E     S S S E.  S S S E.  E  E   
----------------------------|----------------------------|
----------------------------|----------------------------|
--0-0-0-----0-0-0-----------|--0-0-0-----0-0-0-----------|
----------------------------|----------------------------|


  S S S E.  S S S E  S S S S S    S S S E.  S S S E.  E  E   
-------------------------------|----------------------------|
-------------------------------|----------------------------|
--0-0-0-----0-0-0--------------|--0-0-0-----0-0-0-----------|
---------------------0-3-0-3-4-|----------------------------|


  S S S E.  S S S E.  E  E     S S S E.  S S S E.  E  E   
----------------------------|----------------------------|
----------------------------|----------------------------|
--0-0-0-----0-0-0-----------|--0-0-0-----0-0-0-----------|
----------------------------|----------------------------|


  S S S E.  S S S E.  E  E    
----------------------------||
----------------------------||
--2-2-2-----2-2-------------||
----------------0-----------||
Login or Register to remove this ad.

2 comments on Dancing Dragon Dungeon

Ops

I found 2 very small duration mistakes. 2nd bar 5th string 8-7h-8p-7-5
The 2 first notes there are 16th, the 2 next are 32nd

4th bar 5th string 7-8p-7h-8p-7p-5
The 2 first notes are 16th, the next two are 64th, the following is 32nd and the last is 16th

Same next loop.

Sigh :) However it's probably not noticeable

Video version, which is updated with this: http://youtu.be/zHAMNRR3M5c

You can upload an updated

You can upload an updated version to fix the errors