Ads

Zelda's Lullaby (Legend of Zelda: Ocarina of Time) Guitar Tab

Submitted: May 31, 2013 by jeffersonian

4.25
Average: 4.3 (4 votes)
Download | Listen
Game: Legend of Zelda: Ocarina of Time
Composer(s): Koji Kondo
Style: Arrangement, Fingerstyle
Series: Legend of Zelda

AutoScroll: Slow | Medium | Fast
Zelda's Lullaby - The Legend of Zelda: Ocarina of Time
by: Koji Kondo

Arranged and Tabbed by: jeffersonian


Standard tuning (EADGBe) - Capo on 4 (or wherever you prefer)

I suggest reading some of the notes I left on the bottom before you play. 


  G                                                           C
  
e|-------------------------------------------------------------0-------|
B|-0-------3---------------0-------3---------------0-------3---1---1---|
G|-----0-----0-2-------0-2-----0-----0-2-------0-2-----0-----0-0-0---0-|
D|---0---0---------0---------0---0---------0---------0---0-------------|
A|---------------2---2-------------------2---2-----------------3-------|
E|-3-----------3-----------3-----------3-----------3-------------------|

                             G
                  H.          
|--------------------------|-----------------|------------------|
|-3---0-------1-0----------|-0-------3-------|---------0--------|
|---0-----0-------2--------|-----0-----0-2---|-----0-2-----0----|
|-------0---0--------------|---0---0---------|-0---------0---0--|
|--------------------------|---------------2-|---2--------------|
|-----3-----------3--------|-3-----------3---|---------3--------|


                              C                                       G
                                                H.   
|-----------------------------0-----------5-------|--5-------3p2-3p2-------|
|-3---------------0-------3---1---1---3---------3-|-------------------3----|
|---0-2-------0-2-----0-----0-0-0---0---0-----0---|------0-----------------|
|---------0---------0---0-------------------0-----|----0---0-0-------------|
|-------2---2-----------------3-------------------|-------------------3----|
|-----3-----------3-----------------------3-------|--3---------------------|

                        C                       G
                                                                H.
|-------3-------2p0-2p0---------5--------3p2-3p2-----3---10----------|
|-----------3-----------1------------------------3--------------8----|
|---0-----0---0-------------0-------0--------------0---0------0------|
|-2---2-2-------0---------2---2---0---0--0-----------0------0--------|
|-----------------------3------------------------3-------------------|
|-------------------------------3------------------------------------|

  G
 
|-----------------|--------------|
|-0-------3-------|---------0----|
|-----0-----0-2---|-----0-2------|
|---0---0---------|-0------------|
|---------------2-|---2----------|
|-3-----------3---|---------3----|

                                        C           
                                        
                                          (rit. slow down here!)  H    W
|-----------------|-----------------|---0-------------|---------------------|
|-------3---------|-------0-------3-|---1---1---3---0-|-------1-0-----------|
|---0-----0-2-----|---0-2-----0-----|-0-0-0---0---0---|---0-------2---^0----|
|-0---0---------0-|---------0---0---|-----------------|-0---0---------^0----|
|-------------2---|-2---------------|---3-------------|---------------^2----|
|-----------3-----|-------3---------|---------------3-|-----------3---^3----|




Duration Legend
---------------

Note that all notes are 8th notes unless otherwise marked

H. - dotted half
H  - half 
W  - whole


Tablature Legend
----------------
 p  - pull-off
 ^  - strum


Other Notes:

- G and C written above the staff: finger the chord letter written for helpful fingering on that part of the song

- The beginning portion of the song (the main theme) is much easier to play if you use this fingering: 


e|------------------------------------------------|
B|--use pinky on fret 3 when necessary------------|
G|--use middle finger on fret 2 when necessary----|
D|------------------------------------------------|
A|--pointer on fret 2-----------------------------|
E|--ring finger on fret 3-------------------------|


Cheers! -- jeffersonian









Login or Register to remove this ad.

2 comments on Zelda's Lullaby

Chords progression is a tad

4

Chord progression is a tad different from the original but sounds good! :)

awesome! glad you liked it.

awesome! glad you liked it. :)