Ads

Zelda's Lullaby (Legend of Zelda: Ocarina of Time) Guitar Tab

Submitted: Nov 07, 2019 by guitarsvd (Last updated: Nov 09, 2019)

5
Average: 5 (4 votes)
Download | No audio :(
Game: Legend of Zelda: Ocarina of Time
Composer(s): Koji Kondo
Style: Arrangement, Artificial harmonics, Fingerstyle, Natural harmonics, Tremolo
Series: Legend of Zelda

Click here for a video example.

AutoScroll: Slow | Medium | Fast
                               Zelda's Lullaby                                 


                                                          Cecil Chau (GuitarSVD)
Track 1



     E  E  Q    Q       E  E  Q    E   E     E  E  Q    Q       E  E  H         
E||--------0---------|--------2-----------|--------3---------|--------2--------|
B||--0----------3----|--------------------|--0----------3----|-----------------|
G||-----0------------|--2----------0h--2--|------------------|--2--------------|
D||------------------|--------------------|------------------|-----------------|
A||--3---------------|-----3--------------|-----3------------|-----3-----------|
E||------------------|--------------------|------------------|-----------------|


           NH                                                  
  E  E     Q    Q       E  E  Q    Q       E  E  E  E  E   E   
---------------------|--5---------------|---------------------|
--0------------------|-------------8----|--3-----------1p--0--|
----------------7----|--------6---------|-----------0--L------|
--------<>12---------|------------------|--------2------------|
---------------------|------------------|-----0---------------|
-----7---------------|-----6------------|---------------------|


                       NH           NH        NH            NH   NH  
  E  E  H              E  E  Q      Q         E  E  Q       E    E   
-----------------|-----------0-----------|--------------------------|
--------7--------|--<>12-----------------|----------7---------------|
-----5-----------|--------0-------<>7----|---------------<>12-------|
--7--------------|-----------------------|--<>7----------------<>7--|
--5--------------|-----------------------|--------------------------|
-----------------|-----8-----------------|-------8------------------|


     NH       NH     NH        NH                   NH       NH     NH    
     E  E     Q      Q         E  E  H              E  E     Q      Q     
--------------------------|-------------------|--------------------------|
--<>12--------------------|----------7--------|--<>12--------------------|
-----------<>12----<>7----|-------------------|-------------------<>7----|
--------9-----------------|--<>7--------------|-----------<>12-----------|
--------------------------|-------------------|--------------------------|
-----8--------------------|-------8-----------|--------7-----------------|


                                                           NH   NH    
    E  E  Q      Q          E   E  H            E  E  E    E    Q     
--<>5-----------------|--<>10---------------|---L--------------------|
---------------<>8----|------------8--------|---------7--------------|
----------6-----------|---------------------|------5----------<>7----|
----------------------|--------10-----------|------------<>7---------|
----------------------|-----0---------------|---5--------------------|
-------6--------------|---------------------|------------------------|


   E   E   E   E  E   E     E  E  E  E  Q       E  E  E  E  E  E   
--10--------------8------|--8--7-------------|--8-----------7--5--|
---------------------12--|--------8----------|--------------------|
----------10-------------|--------5----------|--------------------|
------10------10---------|-----5-----5-------|--0-----7-----0-----|
---8--------------8------|--7-----------7----|-----8-----8--------|
-------------------------|-------------------|--------------------|


  E  E  E  E  Q        E   E   E   E  E  E     E  E  E  E  Q     
--7--5--0----------|--10--------------8--7--|--8--7--------8----|
--------0-----0----|------------------------|--------8----------|
-----0-----0-------|----------10------------|--------5----------|
-------------------|------10------10--------|-----5-----5-------|
--3----------------|---8--------------8-----|--7-----------7----|
-------------------|------------------------|-------------------|


                                     NH    NH    NH                    
    E  E  E  E  E  E     E  E  E     E     E     E       H.            
--<>3-----------------|--------1--------------------|--<>3------------|
----------------------|-----1-----------------<>12--|-----------------|
----------3--6--3-----|--2--------------<>12--------|-----------------|
-------5-----------5--|-----------<>19--------------|-----------------|
----5-----------------|--0--------------------------|----L------------|
----------------------|-----------------------------|-----------------|


  TP           TP       TP          TP TP    TP           TP     
  E  E  E  E   E  E     E  E  E  E  E  E     E  E  E  E   E  E   
--7-----------10-----|--5-----------3--5--|--7-----------10-----|
--------0------0-----|--------------------|--------0------0-----|
-----0-----0------0--|--------------------|-----0-----0------0--|
---------------------|-----0--4--0--4--0--|---------------------|
--3------------------|--3-----------------|--3------------------|
---------------------|--------------------|---------------------|


  TP                  TP          TP       TP                
  E  E  E  E  Q       E  E  E  E  E  E     E  E  E  E  Q     
--5----------------|--------------------|--5----------------|
-------------------|--0-----------3-----|--------8-----8----|
-------------------|--------2-----2-----|-----6-----6-------|
-----0--4--0--4----|-----0-----0-----0--|-------------------|
--3----------------|--2-----------------|-------------------|
-------------------|--------------------|--6----------------|


   TP                               NH   NH                              
   E   E  E   E  Q       E  E  E    E    Q        E   E   E   E  E   E   
--10------------------|-----------------------|--10--------------8------|
----------8------8----|--------7--------------|---------------------12--|
----------------------|-----5----------<>7----|--10------10-------------|
------10-----10-------|-----------<>7---------|--10--10------10---------|
---0------------------|--5--------------------|---8--------------8------|
----------------------|-----------------------|-------------------------|


  E  E  E  E  Q       E  E  E  E  E  E     E  E  E  E  Q     
--8--7-------------|--8-----------7--5--|--7--5--0----------|
--0-----8----------|--------------------|--------0-----0----|
--------5----------|--------------------|-----0-----0-------|
-----5-----5-------|--0-----7-----0-----|-------------------|
--7-----------7----|-----8-----8--------|--3----------------|
-------------------|--------------------|-------------------|


   E   E   E   E  E  E     E  E  E  E  Q         E  E  E  E  E  E   
--10--------------8--7--|--8--7--------8----|--<>3-----------------|
------------------------|--------8----------|----------------------|
----------10------------|--------5----------|----------3--6--3-----|
------10------10--------|-----5-----5-------|-------5-----------5--|
---8--------------8-----|--7-----------7----|----5-----------------|
------------------------|-------------------|----------------------|


  Rit.                                                                    
                NH    NH    NH                         NH           NH    
  E    E  E     E     E     E       H.                 E  E  Q      Q     
----------1--------------------|--<>3------------|-----------0-----------|
-------1-----------------<>12--|-----------------|--<>12-----------------|
--2----------------<>12--------|-----------------|--------0-------<>7----|
-------------<>19--------------|-----------------|-----------------------|
--0----------------------------|----L------------|-----------------------|
-------------------------------|-----------------|-----8-----------------|


    NH       NH       NH    NH            NH         
    E  E     E  E     E     E     E  E    H          
----------------0--------------|--------<>7--------||
-------------------<>12--------|--------<>7--------||
----------<>12-----------<>12--|-----0----L--------||
--<>7--------------------------|-------------------||
-------------------------------|-------------------||
-------8-----L-----------------|--3----------------||




Duration Legend
---------------
W - whole
H - half
Q - quarter
E - 8th
S - 16th
T - 32nd
X - 64th
. - note dotted
|-n-|  - n-tuplets


Tablature Legend
----------------
L - tied note
x - dead note
g - grace note
(n) - ghost note
> - accentuded note
NH - natural harmonic
AH - artificial harmonic
TH - tapped harmonic
SH - semi harmonic
PH - pitch harmonic
h - hammer on
p - pull off
b - bend
br - bendRelease
pb - preBend
pbr - preBendRelease
brb - bendReleaseBend
\n/ - tremolo bar dip
\n - tremolo bar dive
-/n - tremolo bar Release up
/n\ - tremolo bar inverted dip
/n - tremolo bar return
-\n - tremolo bar Release down
S - shift slide
s - legato slide
/ -  slide into from below or out of upwards
\ -  slide into from above or out of downwards
~ - vibrato
W - wide vibrato
tr - trill
TP - tremolo picking
T - tapping
S - slap
P - pop
< - fade in
^ - brush up
v - brush down
Login or Register to remove this ad.

2 comments on Zelda's Lullaby

Lovely, favorited!

Lovely, favorited!

without even reading the name

5

without even reading the name i could tell who arranged this; i love your use of harmonics.