Ads

Minuet of Forest (Legend of Zelda: Ocarina of Time) Mandolin Tab

Submitted: May 11, 2011 by Fenderic

5
Average: 5 (2 votes)
Download | Listen
Game: Legend of Zelda: Ocarina of Time
Composer(s): Koji Kondo
Style: Transcription
Series: Legend of Zelda

AutoScroll: Slow | Medium | Fast
Minuet of Forest
Legend of Zelda: Ocarina of Time
Composed by: Koji Kondo
Tabbed by: Fenderic
Date tabbed: May 10th, 2011


E|-----------------------10-7-----5-7-5--|
A|----5-2----0-2-0-----5-----------------|
D|--0------------------------------------|
G|---------------------------------------|

E|--0-5-3---5---3-5-3-2----0--|
A|----------------------------|
D|----------------------------|
G|----------------------------|
Login or Register to remove this ad.

1 comment on Minuet of Forest

?

5

?