Ads

Kaepora Gaebora (Legend of Zelda: Ocarina of Time) Guitar Tab

Submitted: Jun 06, 2014 by Colin_spade (Last updated: Jul 17, 2014)

4.666665
Average: 4.7 (3 votes)
Download | Listen
Game: Legend of Zelda: Ocarina of Time
Composer(s): Koji Kondo
Style: Arrangement, Fingerstyle
Series: Legend of Zelda

AutoScroll: Slow | Medium | Fast
     Kaepora Gaebora's Theme    
                        Legend of Zelda: Ocarina of Time 
                                 Koji Kondo
                        

Piano Arr Secter77
Guitar arr Colin_spade


Track 1 (Capo 1)


     Q    E  E  Q    Q         E  S S E.  S S S S S E  E   
E||------------------2----||----------2-------------2-----|
B||------------------2----||---0--3---------0---3---------|
G||-----------------------||*-----------------------------|
D||--4----2--2--4---------||*-------------------0-2-4-----|
A||--4----2--2--4---------||---2----1-2---1-2-4--------2--|
D||-----------------------||------------------------------|


  E  E  S S S S E  S S E  E     E  S S E.  S S S S S E  E   
--------5--------------2-----|---------2-------------2-----|
-----3-------------3---------|--0--3---------0---3---------|
--------2-0------------------|-----------------------------|
--4---------4-2-4------------|-------------------0-2-4-----|
-----2----------5--4-2-1-----|--2----1-2---1-2-4--------2--|
--4-----------------------4--|-----------------------------|


  E  E  S S S S E  S S Q       E.  S E  S S S S S S E  E   
-----0--2-------------------|-----------0---2-------------|
--2--------------------0----|--3--------------------0-----|
-----0----------------------|-----------------------------|
--2-----4-2-0------4--------|-------------------0-2-4-----|
--------------4-4----2-2----|--2---1-2----1-2-4--------2--|
----------------------------|-----------------------------|


  E  E  S S S S E  S S E  E     E.  S E  S S S S S S E  E   
-----------------------2-----|-----------0---2-------------|
--3-----2---0----------------|--3--------------------0-----|
--------2-------3------------|-----------------------------|
----------5-4-2-0------------|-------------------0-2-4-----|
-----2-------------4-2-1-----|--2---1-2----1-2-4--------2--|
--4-----------------------4--|-----------------------------|


  E  E  S S S S E.  S Q       E  S S E  S S E   S S E  E   
---------------------------|--5--2-3-5--2-3-5--10-9-7--5--|
--2-------------------0----|------------------------------|
--------3------------------|------------------------------|
----------2-0--------------|----------------0-------------|
--------------4-4---2-2----|------------0-----------0-----|
--2--5--4------------------|--0---------------------------|


  E  S S E  E  Q    Q       E  S S E  S S E  S S E  E   
--7--3-5-3--2--3---------|--0------0------0--9-7-5-----|
---------------5---------|-----2-3----2-3-----------8--|
-------------------------|----------------2------------|
---------------2---------|------------2----------------|
------------2-------2----|--0--------------------7-----|
--2----------------------|-----------------------------|


  E  S S E  E  Q    Q       E  S S E  S S E   S S E  E   
-----5-3-2--0--2---------|--5--2-3-5--2-3-5--10-9-7--5--|
--8------------3---------|------------------------------|
-------------------------|------------------------------|
---------------0---------|----------------0-------------|
------------0-------0----|------------0-----------0-----|
--0----------------------|--0---------------------------|


  E  S S E  E  Q    Q       E  S S E  S S E  S S E  E   
--7--3-5-3--2--3---------|--0------0------0--9-7-5-----|
---------------5---------|-----2-3----2-3-----------8--|
-------------------------|----------------2------------|
---------------2---------|------------2----------------|
------------2-------2----|--0--------------------7-----|
--2----------------------|-----------------------------|


  E  S S E.  S H           
-----0-------------------||
--7----3-2---3-3---------||
---------------2--------*||
------------------------*||
---------0---------------||
--0------------0---------||




Duration Legend
---------------
W - whole
H - half
Q - quarter
E - 8th
S - 16th
T - 32nd
X - 64th
. - note dotted
|-n-|  - n-tuplets


Tablature Legend
----------------
L - tied note
x - dead note
g - grace note
(n) - ghost note
> - accentuded note
NH - natural harmonic
AH - artificial harmonic
TH - tapped harmonic
SH - semi harmonic
PH - pitch harmonic
h - hammer on
p - pull off
b - bend
br - bendRelease
pb - preBend
pbr - preBendRelease
brb - bendReleaseBend
\n/ - tremolo bar dip
\n - tremolo bar dive
-/n - tremolo bar Release up
/n\ - tremolo bar inverted dip
/n - tremolo bar return
-\n - tremolo bar Release down
S - shift slide
s - legato slide
/ -  slide into from below or out of upwards
\ -  slide into from above or out of downwards
~ - vibrato
W - wide vibrato
tr - trill
TP - tremolo picking
T - tapping
S - slap
P - pop
< - fade in
^ - brush up
v - brush down
Login or Register to remove this ad.

3 comments on Kaepora Gaebora

This is one of my fav guitar

This is one of my fav guitar tabs for my Zelda songs :3

this one is difficult, but i

5

this one is difficult, but i like it.

it is pretty difficult. i

it is pretty difficult. i believe i was on 2 days without sleep when i finished it xD oh damn that was a bad time. ill probably rework it in the future to be more guitar friendly :3