Ads

Hyrule Castle Courtyard (Legend of Zelda: Ocarina of Time) Guitar Tab

Submitted: Jul 14, 2013 by Jaime Uribe

5
Average: 5 (3 votes)
Download | Listen
Game: Legend of Zelda: Ocarina of Time
Composer(s): Koji Kondo
Style: 2 or more instruments, Fingerstyle, Transcription
Series: Legend of Zelda

AutoScroll: Slow | Medium | Fast
I think this one wasn't tabbed yet, both guitar are Standard Tuning (EADGBE)
Have fun, any corrections or anything just comment :)

Guitar 1:
     E  E  E  E  E  E  E  E     E  E  E  E  E  E  E  E   
E||--------------------------|--------------2--3--------|
B||--------------------------|--4--5--------4--5--------|
G||--------------------------|--4--5--------------------|
D||--1--2--------4--5--------|--------------------------|
A||--2--3--------6--7--------|--------------------------|
E||--------------------------|--------------------------|

  E  E  E  E  E  E  E  E     E  E  E  E  E  E  E  E   
--------------------------|--------------------------|
--------------------------|--------------5--6--------|
--------------------------|--------------5--7--------|
--2--3--------2--3--------|--6--7--------------------|
--------------3--5--------|--7--8--------------------|
--4--5--------------------|--------------------------|

  E  E  E  E  E  E  E  E     E  E  E  E  E  E  E  E   
--------------------------|--------------2--3--------|
--------------------------|--4--5--------4--5--------|
--------------------------|--4--5--------------------|
--1--2--------4--5--------|--------------------------|
--2--3--------6--7--------|--------------------------|
--------------------------|--------------------------|

  E  E  E  E  E  E  E  E     E  E  E  S S H           E  E  E  E  E  E  E  E   
--------------------------|------------------------|--------------------------|
-----0--0--0--0--0--0--0--|--0--0--0--0-L-L--------|--------------------------|
-----0--0--0--0-----------|------------------------|-----2--2--2--2--2--2--2--|
-----------------3--3--3--|--3--2--0--2-3-0--------|-----1--1--1--1--0--------|
--------------------------|------------------------|--------------------3--2--|
--------------------------|------------------------|--------------------------|

  E  E  E  S S H           E  E  E  E  E  E  E  E     E  E  E  E  E  E  E  E   
------------------------|--------------------------|--------------------------|
------------------------|--------------------------|--------------------------|
--2--------2-L-L--------|--------------------------|--------------------------|
--1--0-----0-1----------|-----2--2--2--2-----2--2--|-----2-----2--2--2--2--2--|
--------3------3--------|-----3--3--3--3--2--1--0--|--------0--1--2--3--4--5--|
------------------------|--------------------------|-----4--------------------|





Guitar 2:
     Q    E  E  Q     E   E     Q     E   E  Q    E  E   
E||--------------------------|--------8---8-------6--6--|
B||-------------------8---8--|--------------------------|
G||-------5--5---------------|--------------------------|
D||--------------------------|-------10--10-------8--8--|
A||------------------10--10--|--------------------------|
E||-------8--8---------------|--------------------------|

  Q    E  E  Q     E   E     Q     E   E  Q     E   E   
-------------------8---8--|-------13--13-------11--11--|
-------6--6---------------|----------------------------|
--------------------------|-------10--10--------8---8--|
------------------10--10--|----------------------------|
-------8--8---------------|----------------------------|
--------------------------|----------------------------|

  Q    E  E  Q     E   E     Q     E   E  Q    E  E     W                 
--------------------------|--------8---8-------6--6--|-------------------|
-------------------8---8--|--------------------------|-------------------|
-------5--5---------------|--------------------------|--0----------------|
--------------------------|-------10--10-------8--8--|-------------------|
------------------10--10--|--------------------------|-------------------|
-------8--8---------------|--------------------------|--3----------------|

  H.           E  E     W                   H.           E  E   
---------------------|-------------------|---------------------|
---------------------|-------------------|---------------------|
--L------------------|-------------------|---------------8--7--|
---------------5--4--|--3----------------|--L------------------|
---------------------|-------------------|---------------6--5--|
--L------------3--2--|--1----------------|--L------------------|

  W                   H        E  E  E  E            
-------------------|-----------------------|
-------------------|-----------------------|
--5----------------|--L--------L--5--5--5--|
-------------------|-----------------------|
--3----------------|--L--------L--3--3--3--|
-------------------|-----------------------|


Duration Legend
---------------
W - whole
H - half
Q - quarter
E - 8th
S - 16th
T - 32nd
X - 64th
. - note dotted
|-n-|  - n-tuplets


Tablature Legend
----------------
L - tied note
x - dead note
g - grace note
(n) - ghost note
> - accentuded note
NH - natural harmonic
AH - artificial harmonic
TH - tapped harmonic
SH - semi harmonic
PH - pitch harmonic
h - hammer on
p - pull off
b - bend
br - bendRelease
pb - preBend
pbr - preBendRelease
brb - bendReleaseBend
\n/ - tremolo bar dip
\n - tremolo bar dive
-/n - tremolo bar Release up
/n\ - tremolo bar inverted dip
/n - tremolo bar return
-\n - tremolo bar Release down
S - shift slide
s - legato slide
/ -  slide into from below or out of upwards
\ -  slide into from above or out of downwards
~ - vibrato
W - wide vibrato
tr - trill
TP - tremolo picking
T - tapping
S - slap
P - pop
< - fade in
^ - brush up
v - brush down
Login or Register to remove this ad.