Gerudo Valley (Legend of Zelda: Ocarina of Time) Mandolin Tab

Submitted: Jul 25, 2018 by Mandolin Wild

0
Download | Listen
Game: Legend of Zelda: Ocarina of Time
Composer(s): Koji Kondo
Style: Arrangement
Series: Legend of Zelda

Click here for a video example.

AutoScroll: Slow | Medium | Fast
The Legend of Zelda - Ocarina of Time
Gerudo Valley
Koji Kondo
Arr. Mandolin Wild

4/4

  |       |       |       |         |       |       |       |        
|-----------0---3-----2-5-7-------|---------------------------------|
|-------3-----------6-------------|-X-------X-------X-----X---X-----|
|-----4---------------------------|-X-------X-------X-----X---X-----|
|-4-5-----------------------------|-X-X-X-X-X-X-X-X-X-X-X-X-X-X-X-X-|
 
  |       |       |       |         |       |       |       |        
|---------------------------------|-------0-----------0-------------|
|-X-------X-------X-----X---X-----|---2-------2---2-----2---2-----2-|
|-X-------X-------X-----X---X-----|-5---5---X---5---5-----5-5---5---|
|-X-X-X-X-X-X-X-X-X-X-X-X-X-X-X-X-|---------X---------------X-------|
 
  |       |       |       |         |       |       |       |        
|-------0-----------0-------------|-------0-----------0-------------|
|---3-------3---3-----3---3-----3-|---5-------5---5-----5---5-----5-|
|-5---5---X---5---5-----5-5---5---|-7---7---X---7---7-----7-7---7---|
|---------X---------------X-------|---------X---------------X-------|
 
  |       |       |       |         |       |       |       |        
|-------0-----------7-7-7-7---7---|-----0-2-3-------0-2-3-----------|
|---6-------6---6---6-6-6-6---6---|---2-----2-----2-------2-------2-|
|-9---9---X---9---9-9-9-9-9---9---|-2-------X---2-----------X---2---|
|---------X---------------X-------|---------X---------------X-------|
 
  |       |       |       |         |       |       |       |        
|-----0-2-3-------0-2-3-----------|-------0-----------0-------------|
|---3-----3-----3-------3-------3-|-----5---9-------5---9---9-------|
|---------X---------------X-------|---7-----7-----7-------7-7-----7-|
|-5-------X---5-----------X---5x--|-7-------X---7-----------X---7---|
 
  |       |       |       |         |       |       |       |        
|---0-2-0-----------0-------------|-----0-2-3-------0-2-3-----------|
|---------6-------6---6---6-------|---2-----2-----2-------2-------2-|
|---------4-----4-------4-4-----4-|-2-------X---2-----------X---2---|
|-4-------4B--4-----------X---4---|---------X---------------X-------|
 
  |       |       |       |         |       |       |       |        
|-----0-2-3-------0-2-3-----------|-------0-----------0-------------|
|---3-----3-----3-------3-------3-|-----5---9-------5---9---9-------|
|---------X---------------X-------|---7-----7-----7-------7-7-----7-|
|-5-------X---5-----------X---5x--|-7-------X---7-----------X---7---|
 
  |       |       |       |         |       |       |       |        
|---3-5-3-2-----------------------|-----------3-----2-----0---------|
|---------6-----------------------|-----2-----------------------2---|
|-----------------1-1-----1-------|-2-------X---2-------2---X-2-----|
|-4-----------X-X-------------4---|---X-----X---------------X-------|
 
  |       |       |       |         |       |       |       |        
|-----------0---------------------|-----------2-----0---------------|
|-5-------5---5-3-----------3---3-|-----0-----------------5-----3---|
|-2-----2-X---------2-----X---2---|-0-------X---0-------0---X-0-----|
|-5B--5---X-------------5-X-------|---X-----X---------------X-------|
 
  |       |       |       |         |       |       |       |        
|---------------------------------|-----------3-----2-----0---------|
|-2-------3h5h3-2-----------------|-----2-----------------------2---|
|-----2---3---------------X-------|-2-------X---2-------2---X-2-----|
|---------X---------X---X-X---X-X-|---X-----X---------------X-------|
 
  |       |       |       |         |       |       |       |        
|-----------0---------------------|-------------0-------------------|
|-5-------5---5-3-----------3-----|-5-------X---0---5-------X---3---|
|-2-----2-X---------2-----X---5---|-7-------X-------7-------X---4---|
|-5B--5---X-------------5-X-------|-----X-X-X-----------X-X-X-------|
 
  |       |       |       |         |       |       |       |        
|---------------------------------|-----3-----2-----3-----2---------|
|-2-------X-------2-2-2-2-X---2---|-2---X-------X-------X-------2---|
|-4-------X-------1-1-1-1-X---1---|-2---X-------X-------X-------X---|
|-----X-X-X---------------X-------|-----X-------X-------X-------X---|
 
  |       |       |       |         |       |       |       |        
|---------------------------------|-----2-----0-----2---------------|
|-5---5-----3-2-3-----3-------X---|-0---X-------X-------X-5-----3---|
|-2---X-------X-------X-------X---|-0---X-------X-------X-------X---|
|-5---X-------X-------X---5---X---|-----X-------X-------X-------X---|
 
  |       |       |       |         |       |       |       |        
|---------------------------------|---------------------------------|
|-2-------3h5h3-2-----X-------X---|-----------2-----------2---------|
|-----2-------X-------X-------X---|-2---2-4-5---2---2-4-5-------X---|
|-----X-------X-------X-------X---|---4-X-------X-4-----X-----X-X---|
 
  |       |       |       |         |       |       |       |        
|---------------------------------|-------------2---0---0-----------|
|-----------3-----------3-----3---|-0---0-------5---3---3-------0---|
|-2---2-4-5---2---2-4-5-------X---|-0---0-----------------------4---|
|---5-X-------X-5-----X-------X---|-----X-------X-------X-------X---|
 
  |       |       Tempo Drop        |       |       |       |        
|---------------------------------|-3-2-3---3-----------0-2-3-5-3-2-|
|-2---2-------X---2-2-2-2-2-2-2-2-|-2-----2-2-----2---2-----2-------|
|-4---4-------X---1-1-1-1-1-1-1-1-|-2-------2---2---2-------X-------|
|-----X---X-X-X-------------------|---------X---------------X-------|
 
  |       |       |       |         |       |       |       |        
|-3-2-3---3-----------------------|-2-0-2---2-------------0-2-3-2-0-|
|-2-----2-2-----2---------X-------|-0-----0-0-----0---0-5---0-------|
|-2-------2---2-----------X-------|-0-------0---0---0-------X-------|
|---------X---------X---X-X---X-X-|---------X---------------X-------|
 
  |       |       |       |         |       |       |       |        
|-2-0-----------0-----------------|-3-2-3---3-----------0-2-3-5-3-2-|
|-----6---6---------6-----3h3-2-0-|-2-----2-2-----2---2-----2-------|
|---------4-----------------------|-2-------2---2---2-------X-------|
|---------X---4-----------X-------|---------X---------------X-------|
 
  |       |       |       |         |       |       |       |        
|-3-2-3---3-----------------------|-5-3-5-------------------5-7-8-10|
|-2-----2-2-----2---------2-2-0---|-0-----0-0-----0---0-9-10--------|
|-2-------2---2-------X---X-----5-|-0-------0---0---0-------X-------|
|---------X-----------X---X-------|---------X---------------X-------|
 
  |       |       |       |         |       |       |       |        
|-7-5-7-X-7-----7-----------------|-----------0---------------0-----|
|-------X-X---------------X-------|---2---------------2-------------|
|-------X-X---------------X-------|-2---5-4-----5---2---5-4-----5---|
|-------X-X---X---------X-X---X---|---------------------------------|
 
  |       |       |       |         |       |       |       |        
|-----------0---------------0-----|---2-------2-------2-------2-----|
|---3---------------3-------------|-----0-------0-------0-------0---|
|-----5-4-----5-------5-4-----5---|-0-----6---------0-----6---------|
|-5---------------5---------------|---------------------------------|
 
  |       |       |       |         |       |       |       |        
|---------------------------------|---------------------------------|
|-3-5-3-2t------------------------|---------------------------------|
|-4-----1t------------------------|---------------------------------|
|---------------------------------|---------------------------------|
 

Tablature Legend
----------------
h - hammer-on
B - brush
x - muted note
t - tremolo
X - dead note

Login or Register to remove this ad.