Credits (Legend of Zelda: The Minish Cap) Guitar Tab

Submitted: May 19, 2013 by Andarnio

4.666665
Average: 4.7 (3 votes)
Download | Listen
Game: Legend of Zelda: The Minish Cap
Composer(s): Mitsuhiko Takano
Style: Arrangement, Fingerstyle
Series: Legend of Zelda

AutoScroll: Slow | Medium | Fast
E|-6-------------1--1--6---4-2-4-----------
B|-3-----3-3-3---3--3--3-------------------
G|-------3-3-3-------------5-3-5---5-5-5---
D|-----------------------------6---6-6-6---
A|-----------------------------------------
E|-----------------------------------------

E|-6------------------6--5--3--5-----------
B|--------------7--7-----6--4--6-----------
G|-6------------------6--------------5-----
D|-------8-8-8--8--8-----------------------
A|-------9-9-9-----------------------------
E|-----------------------------------------

E|-----------------------------------------
B|6---------------------3----3-3-3-3-------
G|----------------------3----3-3-3-3-------
D|-----------------------------------------
A|----------------------1-1------1-------1-
E|-----------------------------------------

E|---0-0-0-0-0-0---------------------------
B|---1-1-1-1-1-1--------3----3-3-3-3-------
G|----------------------3----3-3-3-3-------
D|-----------------------------------------
A|-1---------1----------1-1------1-------1-
E|-----------------------------------------

E|---0-0-0-0-0-0--------------------1------
B|---1-1-1-1-1-1--------3------------------
G|----------------------3-------3----------
D|--------------------------3--------------
A|-1---------1--------1-1-----1-1-1--------
E|-----------------------------------------

E|-0--------0---3---1-------5---1-1--------
B|-1---1--------------1-1------------------
G|-----------------------------------------
D|-----------------------------------------
A|-1------1-1-1-----0-----0-0-0----------0-
E|-----------------------------------------

E|-----8--5-5--------5------------0-1-3----
B|-------------------3---3------3----------
G|-----------------------------------------
D|-----------------------------------------
A|-0-----0--0-0------1-----1-1-1-----------
E|-----------------------------------------

E|-3-----------------3-----------3---------
B|-----1-------------4-------4-------------
G|-------------------5---5-----------------
D|-----------------------------------------
A|-1------1-1-1----------------------------
E|-------------------4-----4-4-4-----------

E|-1---------------------------------------
B|----3-3------------------------4---------
G|-------------------5-------5-------------
D|-----------------------6-----------------
A|-1------1-1-1----------------------------
E|-------------------4-----4-4-4-----------


E|-----------------------------------------
B|-3-----------------------------4---------
G|----3-3------------5-------5-------------
D|-----------------------6-----------------
A|-1------1-1-1----------------------------
E|-------------------4-----4-4-4-----------


E|------1------------------------2---------
B|4-3-4--------------4---0---4-------------
G|-----------------------------------------
D|-----------------------------------------
A|1-------1-1-1------2-----2-2-2-----------
E|-----------------------------------------

E|--------------4----3-----------------3-4-
B|-6--------6--------4-----------4-4-6-----
G|-----6-----------------3-----------------
D|-------------------1-----1-1-1-----------
A|-4------4-4-4----------------------------
E|-----------------------------------------

E|-6---------------------------------------
B|-----------------------------------------
G|-----------------------------------------
D|-----------------------------------------
A|-------------------1-----111-1-----------
E|-------------------3-----333-3-----------

E|-----------------------------------------
B|-----------------------------------------
G|-----------------------------------------
D|-----------------------------------------

A|---3-3-333-3-------1-----111-1-----------
E|---5-5-555-5-------3-----333-3-----------


E|-----------------------------------------
B|-----------------------------------------
G|-------------------0-----------3---------
D|-----------------------------------------
A|---3-3-333-3-------1-----111-1-----------
E|---5-5-555-5-----------------------------


E|-----------------------------------------
B|-----------------------------------------
G|-2-----0-----------0-----------3---------
D|-------------3---------------------------
A|-3-3-3-333-3-------1-----111-1-----------
E|-----------------------------------------


E|-----------------------------------------
B|-1---------------------------------------
G|-------2-----------0-----------3---------
D|-------------3---------------------------
A|-3-3-3-333-3-------1-----111-1-----------
E|-----------------------------------------


E|-----------------------------------------
B|-----------------------------------------
G|-2-----0-----------0-----------0---------
D|-------------3-----0-----000-0-----------
A|-3-3-3-333-3-----------0-----------------
E|-----------------------------------------


E|-----------------------------------------
B|-----------------------------------------
G|-------------------3-----------3---------
D|-4---------------------------------------
A|-5-----555-5-------1-----111-1-----------
E|-----------------------------------------


E|-----------------------------------------
B|-----------------------------------------
G|-5-----2-----------3-----------3---------
D|-------------3---------------------------
A|-3-3-3-333-3-------1-----111-1-----------
E|-----------------------------------------


E|-------1---------------------------------
B|-1---------------------------------------
G|-------------------3-----------3---------
D|-----------------------------------------
A|-3-3-3-333-3-------1-----111-1-----------
E|-----------------------------------------


E|-----------------------------------------
B|-----------------------------------------
G|-5-----2-----5-----7---------------------
D|-------------------5-----------5754------
A|-3-3-3-333-3-------5-----555-5-----------
E|-----------------------------------------

E|-------------5-----3---------------------
B|-3-----------------------6-----5---------
G|-------3-------3---------5-------5-------
D|-----3-------3---------5-------5---------
A|-1-1-------1-------3-3-------3-----------
E|-----------------------------------------

E|-----------------------------------------
B|-5-----------5-----3---3---------1-------
G|-------5-------5-----2---2-----0---0-----
D|-----5-------5-----0---------------------
A|-0-3-------3-----------------3-----------
E|-----------------------------------------

E|-1-----------5-----8-----6-----5---------
B|-3-----------3-----8-----6-----5---------
G|-------2-------2---------3-------5-------
D|-----3-------3---------5-------5---------
A|-1-1-------1-------3-3-------3-----------
E|-----------------------------------------

			     |-3-| |-3-|
E|-3-----------353-------------------2-5---
B|-5-----------5-----7-------------3-------
G|-------5-------5---7-----5-----2---------
D|-----5-------5---------5-----4-----------
A|-5-3-------3-------5-3-----5-------------
E|-----------------------------------------

E|-----------------------------------------
B|-------------1---------------------------
G|-2-----------------0-------------0-------
D|-3-----------------------------3---------
A|-1-----111-1-------3-3-3-333-3-----------
E|-----------------------------------------

E|-----------------------------------------
B|-------------1---------------------------
G|-2-----------------0---------------------
D|-3---------------------------------------
A|-1-----111-1-------3-3-3-333-3-----------
E|-----------------------------------------

E|-------------------3-------1-------------
B|-------------1-----1---------------------
G|-2-----------------0---------------------
D|-3-----------------2---------------------
A|-1-----111-1-------3-3-3-333-3-----------
E|-----------------------------------------

E|-----------------------------------------
B|-1---------------------------------------
G|-2-----------3-2---0---------------------
D|-2-----------------0-0-0-000-0-----------
A|-0-----000-0-----------------------------
E|-----------------------------------------


E|-----------------------------------------
B|-------------1---------------------------
G|-2-----------------0-------------0-------
D|-3-----------------------------3---------
A|-1-----111-1-------3-3-3-333-3-----------
E|-----------------------------------------

E|-----------------------------------------
B|-------------1---------------------------
G|-2-----------------0---------------------
D|-3---------------------------------------
A|-1-----111-1-------3-3-3-333-3-----------
E|-----------------------------------------

E|-------------------3-------1-------------
B|-------------1-----1---------------------
G|-2-----------------0---------------------
D|-3-----------------2---------------------
A|-1-----111-1-------3-3-3-333-3-----------
E|-----------------------------------------
				|--3--|
E|-8---------------------------------------
B|-----------------------------------------
G|-----------------------------------------
D|-7-----777-7---------7-7-777-7-7-7-7-----
A|-5-----555-5---------5-5-555-5-5-5-5-----
E|-----------------------------------------

E|-----3-----------------1-----------------
B|-1---------------------------------------
G|---3---------3-2---3-2-------------------
D|-1-----------------0---3-----------------
A|-----------------------------------------
E|-----------------------------------------

E|-----------------------------------------
B|-----4-----------------3-----------------
G|-3-3---------2-0---2-2-------------------
D|---------------------5-0-----------------
A|-3-----------------3---------------------
E|-----------------------------------------

E|-----3-----------------1-----------------
B|-1-----------------------------1---------
G|---3---------3-2---3-2-------------------
D|-1-----------------0---3-----------------
A|-----------------------------------------
E|-----------------------------------------

E|-1---------------------------------------
B|-----------------------------------------
G|-3---------------------------------------
D|-----------------------------------------
A|-3---------------------------------------
E|---------3---------1---------------------

E|-6-----------6-6-6-6-4-6-------6-6-6-----
B|-6-----------6-6-6-4-2-4-------4-4-4-----
G|-3-------3-------------------------------
D|-------------------6-------6-------------
A|-----------------------------------------
E|-----------------------------------------

E|-6-4-6-------6-6-6-6---------------------
B|-7-6-7-------7-7-7-6-666-666-666-6-------
G|---------------------555-555-555-5-------
D|-4-------4---------3---3---5---7---------
A|-----------------------------------------
E|-----------------------------------------

E|-------------------1-----------1---------
B|--------------1-3-4--------------4-3-----
G|-3---------3-3---------------------------
D|-----3-----------------------------------
A|-1-----111-1-------1-----111-1-----------
E|-----------------------------------------

E|-----------------------------------------
B|-4-3---------4-3-----------1-------------
G|-----3-----------3-3---------------------
D|-----------------------------------------
A|-3-----333-3-------3-----333-3-----------
E|-----------------------------------------

E|-------------------1-----------1---------
B|--------------1-3-4--------------4-3-----
G|-3---------3-3---------------------------
D|-----3-----------------------------------
A|-1-----111-1-------1-----111-1-----------
E|-----------------------------------------

E|-----------------------------------------
B|-4-3---------4-3-----------1-------------
G|-----3-----------3-3---------------------
D|-----------------------------------------
A|-3-----333-3-------3-----333-3-----------
E|-----------------------------------------


E|-1---------------------------------------
B|-----------------------------------------
G|-3---------------------------------------
D|-----------------------------------------
A|-1-----111-1-------1-----111-1-----------
E|-----------------------------------------

E|-----------------------------------------
B|-4-----------------7-------4-------------
G|-5---------------------------------------
D|-----------------------------------------
A|-3-----333-3-------3-----333-3-----------
E|-----------------------------------------

E|-1---------------------------------------
B|-----------------------------------------
G|-3---------------------------------------
D|-----------------------------------------
A|-1-----111-1-------1-----111-1-1---------
E|-----------------------------------------

E|-------------13--12------12--15--14------
B|-11------11----------13------------------
G|-----10----------------------------------
D|-----------------------------------------
A|-----------------------------------------
E|-----------------------------------------

E|-2---------------------------------------
B|-2---------------------------------------
G|-3---------------------------------------
D|-4---------------------------------------
A|-4---------------------------------------
E|-2---------------------------------------
Login or Register to remove this ad.

5 comments on Credits

You wanted more from me.

5

You wanted more from me. You're welcome.
Took me about a week.

Day 17: still no comments

5

Day 17: still no comments

(No subject)

    	
              

yep this counts as a comment!

yep this counts as a comment!

Awesome Sauce!

4

This is hard to practise but I love it :)! I play Minish Cap!!!