Ads

Stone Tower Temple (Legend of Zelda: Majora's Mask) Guitar Tab

Submitted: Dec 22, 2013 by Turatu

5
Average: 5 (6 votes)
Download | Listen
Game: Legend of Zelda: Majora's Mask
Composer(s): Koji Kondo, Toru Minegishi
Style: Arrangement, Fingerstyle
Series: Legend of Zelda

AutoScroll: Slow | Medium | Fast
Stone Tower Temple
Fingerstyle tab by Turatu

Drop D tuning


E|--------|-------------|--------|-------------|------------------------------|------------------------------|
B|--------|-------------|--------|-------------|------------------------------|------------------------------|
G|--------|-------------|--------|-------------|------------------------------|------------------------------|
D|--------|-------------|--------|-------------|-----2-------2-------2---3----|-----2-------2-------2---0----|
A|--------|-------------|--------|-------------|-0-------0-------0------------|-0-------0-------0------------|
D|-2------|-3-----0-----|-2------|-3-----2-----|------------------------------|------------------------------|


E|---------------------------------|-----------------------------------|---------------------------------|
B|---------1-------0---------------|-----1---0h1p0---------------------|---------1-------0---------------|
G|-2---------------------------0---|-2----------------2---0------------|-2---------------------------0---|
D|-----2-------2-------2---3-------|-----2------------2-------2---2----|-----2-------2-------2---3-------|
A|-0-------0-------0---------------|-0-------0------------0-------5----|-0-------0-------0---------------|
D|---------------------------------|-----------------------------------|---------------------------------|


E|-----------------------------------|--------------------------------------|-----------------------------------|
B|-----1---0h1p0---------------------|---------1-------0h1p0----------------|-----1---0h1p0---------------------|
G|-2----------------0---2------------|-2--------------------------------0---|-2----------------2---0------------|
D|-----2------------2-------2---0----|-----2-------2------------2---3-------|-----2------------2-------2---2----|
A|-0-------0------------0------------|-0-------0-------0--------------------|-0-------0------------0-------5----|
D|-----------------------------------|--------------------------------------|-----------------------------------|


E|--------------------------------------|-----------------------------------|--------|
B|---------1-------0h1p0----------------|-----1---0h1p0---------------------|--------|
G|-2--------------------------------0---|-2----------------0---2------------|--------|
D|-----2-------2------------2---3-------|-----2------------2-------2---0----|--------|
A|-0-------0-------0--------------------|-0-------0------------0------------|-2------|
D|--------------------------------------|-----------------------------------|-2------|


E|-------------|--------|-------------|---------------------------------|------------------------------|
B|-------------|--------|-------------|---------------------------------|------------------------------|
G|-------------|--------|-------------|-2-------2-------0---------------|-2-------0--------------------|
D|-------------|--------|-------------|-----2-------2-------2---3---2---|-----2-------3---2---2---0----|
A|-3-----0-----|-2------|-3-----2-----|-0-------0-------0---------------|-0-------0---7---0------------|
D|-3-----0-----|-2------|-3-----2-----|---------------------------------|------------------------------|


E|-0-------0-----------------------|------------------------------|-0-------0--------------------|
B|-----------------3-----------1---|-0-------0--------------------|-----------------3------------|
G|---------------------------------|-----------------2------------|------------------------------|
D|-----2-------2-------2---3-------|-----2-------2-------2---0----|-----2-------2-------2---3----|
A|-0-------0-------0---------------|-0-------0-------0------------|-0-------0-------0------------|
D|---------------------------------|------------------------------|------------------------------|


E|-0----------------------------|-0---1---0--------------------|------------------------------|
B|---------3---1---0------------|-------------3---1-------0----|------------------------------|
G|------------------------------|------------------------------|-2----------------------------|
D|-----2-------2-------2---0----|-----2-------2-------2---3----|-----2-------2-------2---0----|
A|-0-------0-------0------------|-0-------0-------0------------|-0-------0-------0------------|
D|------------------------------|------------------------------|------------------------------|


E|------5---8---7s8s7-------------|---------5---8---7s8s7----------|------5---8---7s8s7-------------|
B|-5--------------------------8---|-----5--------------------------|-5--------------------------8---|
G|--------------------------------|--------------------------------|--------------------------------|
D|--------------------------------|--------------------------------|--------------------------------|
A|--------------------------------|--------------------------------|--------------------------------|
D|--------------------------------|--------------------------------|--------------------------------|


E|---------5---8---7s8s7----------|
B|-----5--------------------------|
G|--------------------------------|
D|--------------------------------|
A|--------------------------------|
D|--------------------------------|


Login or Register to remove this ad.