Ads

Stone Tower Temple (Legend of Zelda: Majora's Mask) Guitar Tab

Submitted: Jan 29, 2011 by Doc Frog (Last updated: Jan 30, 2011)

4
Average: 4 (1 vote)
Download | Listen
Game: Legend of Zelda: Majora's Mask
Composer(s): Koji Kondo, Toru Minegishi
Style: Transcription
Series: Legend of Zelda

AutoScroll: Slow | Medium | Fast
Stone Tower Temple
Tabbed by: Doc Frog
[email protected]
1/29/2011

e------------------------------
B-----------------------------
G-----------------------------
D-----------------------------
A—7----8---5----7---8---5
E-----------------------------

e--------------------------------------------
B-------------------------------------------
G-------------------------------------------
D-------------------------------------------
A------7-----7----7-8------7-----7----7-5
E---5-----5----5--------5-----5-----5-----      X2

e-------------------------------------------------------------------------------
B------------------------------------------------------------------------------
G------------------------------------------------------------------------------
D—7----10—9------7—10-9-7-------7----10—9-----7—10-9-----7r
A-----------10------------10-—7-----------10---------10----    X2
E-------------------------------------------------------------------------------

e------------------------------
B-----------------------------
G-----------------------------
D-----------------------------
A—7----8---5----7---8---5
E-----------------------------

e---------------------------------------------
B--------------------------------------------
G—7--7-5-----7-5------7—7-5----------
D---------7------8-5----------8-7--7-5
A--------------------------------------------
E---------------------------------------------

e---------------------------------------------------
B-------------------------------------------------
G—7--7-5-----7-5------7—8-7--5------------
D----------7-----8-5-------------8-7--7-5
A-------------------------------------------------
E--------------------------------------------------

e-----------8—7h8p7------
B-----10--------------8---
G—9----------------------9
D----------------------------
A----------------------------
E----------------------------    X3

e--------------------------------------------
B-------------------------------------------
G-------------------------------------------
D-------------------------------------------
A------7-----7----7-8------7-----7----7-5
E---5-----5----5--------5-----5-----5-----      X2
Login or Register to remove this ad.

3 comments on Stone Tower Temple

i screwed up

it is stone tower, the place outside the temple

Hmm? Inside and outside the

Hmm? Inside and outside the tower have the song.

Great Tab but...

4

Great Tab but all the notes are low