Ads

Song of Healing (Legend of Zelda: Majora's Mask) Guitar Tab

Submitted: Dec 29, 2016 by chimatte (Last updated: Jan 30, 2017)

5
Average: 5 (3 votes)
Download | Listen
Game: Legend of Zelda: Majora's Mask
Composer(s): Koji Kondo, Toru Minegishi
Style: Arrangement, Fingerstyle
Series: Legend of Zelda

Click here for a video example.

AutoScroll: Slow | Medium | Fast
SONG OF HEALING                                 
Legend of Zelda - Majora's Mask
Koji Kondo
arr. chit. Giuseppe De Matteis
Dropped D Tuning


     E  E  E  E  E  E     E  E  E  E  E  E     E  E  E  E  E  E     E  Q    Q    E   
E||--7-----5-----------|--7-----5-----------|--7-----5-----0-----|--0---------------|
B||--------------6-----|--------------6-----|-----------------3--|-----0----0----0--|
G||-----5-----5-----5--|-----5-----5-----5--|-----5-----5--------|------------------|
D||--3-----------------|--3-----------------|--3-----------------|--2---------------|
A||--------------------|--------------------|--------------------|------------------|
D||--------------------|--------------------|--------------------|------------------|


  E  E  E  E  E  E     E  E  E  E  E  E     E  E  E  E  E  E     E  Q    Q    E   
--7-----5-----------|--7-----5-----------|--7-----5-----0-----|--0---------------|
--------------6-----|--------------6-----|-----------------3--|-----0----0----0--|
-----5-----5-----5--|-----5-----5-----5--|-----5-----5--------|------------------|
--3-----------------|--3-----------------|--3-----------------|--2---------------|
--------------------|--------------------|--------------------|------------------|
--------------------|--------------------|--------------------|------------------|


  E  E  E  E  E  E     E  E  E  E  E  E     E  E  E  E  E  E     E  Q    Q    E   
--1-----------------|--1-----------------|--1-----0-----------|------------------|
--------1-----0-----|--------1-----0-----|--------------0-----|--0---------------|
-----2-----2-----2--|-----2-----2-----2--|-----0-----0-----2--|-----0----0----0--|
--0-----------------|--0-----------------|--------------------|------------------|
--------------------|--------------------|--3-----------------|--3---------------|
--------------------|--------------------|--------------------|------------------|


  E  E  E  E  E  E     E  E  E  E  E  E     E  E  E  E  E  E     E  Q    Q    E   
--1--L--------------|--1--L--------------|--1-----0-----7-----|--3---------------|
--------1--L--0--L--|--------1--L--0--L--|--------------5-----|--5---------------|
-----2--L--2--L--2--|-----2--L--2--L--2--|-----0-----0-----0--|-----0----0----0--|
--0-----------------|--0-----------------|--------------------|------------------|
--------------------|--------------------|--3-----------------|------------------|
--------------------|--------------------|--------------------|------------------|


   E  E   E  E   E  E      E  E   E  E   Q       E  E   E  E   E  E     E  E   E  E   Q     
-----------------------|--10-----10-----10----|----------------------|--8------------------|
--10-----10-----10-----|--10-----10-----10----|--8------8------8-----|---------8-----------|
--10-----10-----10-----|----------------------|--9------9------9-----|--9------9-----------|
----------8------------|----------8-----------|---------------10-----|---------------10----|
------8------8------8--|------8------8--------|--0--7--10--7------7--|--0--7--10--7--------|
---8-------------------|---8------------------|----------------------|---------------------|


  E  E  E  E  E  E     E  E  E  E  Q       E  E  E  E  E  E     E  E  E  E  Q     
--------------------|--6-----6-----6----|--------------5-----|--0----------------|
--6-----6-----6-----|--6-----6-----6----|--5-----3-----------|--1----------------|
--7-----7-----7-----|-----------7-------|--5-----5-----5-----|--------------2----|
--------------8-----|--------------8----|--------------------|--------2----------|
-----5--8--5-----5--|-----5--8----------|-----3-----3-----3--|-----3-----3-------|
--5-----------------|--5----------------|--3-----------------|--3----------------|


   E  E   E  E   E  E      E  E   E  E   Q       E  E   E  E   E  E     E  E   E  E   Q     
-----------------------|--10-----10-----10----|----------------------|--8------------------|
--10-----10-----10-----|--10-----10-----10----|--8------8------8-----|---------8-----------|
--10-----10-----10-----|----------------------|--9------9------9-----|--9------9-----------|
----------8------------|----------8-----------|---------------10-----|---------------10----|
------8------8------8--|------8------8--------|--0--7--10--7------7--|--0--7--10--7--------|
---8-------------------|---8------------------|----------------------|---------------------|


  E  E  E  E  E  E      E  E   E  E   E  E      E  E   E  E   E  E      E  E  H         
--1-----3-----5-----|----------8-----10-----|----------------10-----|--12--------------|
--3-----3-----3-----|--11-------------------|--10-----12------------|------------------|
--------------------|--10-----10-----10-----|--10-----10-----10-----|---------9--------|
-----3-----3-----3--|-----------------------|-----------------------|------9-----------|
--1-----------------|------8------8------8--|------8------8------8--|---7--------------|
--------------------|---8-------------------|---9-------------------|------------------|


  E  E  E  E  E  E     E  E  E  E  E  E     E  E  E  E  E  E     H.             
--7-----5-----------|--7-----5-----------|--7-----5-----0-----|--0------------||
--------------6-----|--------------6--L--|-----------------3--|---------------||
-----5-----5-----5--|-----5-----5-----5--|-----5-----5--------|---------------||
--3-----------------|--3-----------------|--3-----------------|--2------------||
--------------------|--------------------|--------------------|--2------------||
--------------------|--------------------|--------------------|---------------||




Duration Legend
---------------
W - whole
H - half
Q - quarter
E - 8th
S - 16th
. - note dotted
|-n-|  - n-tuplets
Login or Register to remove this ad.