Ads

Milk Bar (Legend of Zelda: Majora's Mask) Guitar Tab

Submitted: Dec 03, 2012 by fanapathy (Last updated: Dec 03, 2012)

0
Download | Listen
Game: Legend of Zelda: Majora's Mask
Composer(s): Koji Kondo, Toru Minegishi
Style: 2 or more instruments, Alternate picking, Transcription
Series: Legend of Zelda

AutoScroll: Slow | Medium | Fast
Majora's Mask - Milk Bar
Composed by Koji Kondo
Tabbed by fanapathy
Tempo = 140



Guitar I

E |-------|----------------------------|----------------------------|
B |-------|----------------------------|----------------------------|
G |-------|----------------------------|----------------------------|
D |-------|--------------5--7--8--7L---|--7-----7--5--7--5--3-------|
A |-------|--------6-------------------|----------------------------|
E |-------|----------------------------|----------------------------|


----------------------------|----------------------------|
----------------------------|----------------------------|
----------------------------|----------------------------|
-----------------3-----5L---|--5-------------------------|
--------5--3--5-------------|-----------5L-------5-------|
----------------------------|----------------------------|


----------------------------|----------------------------|----------------|
----------------------------|----------------------------|----------------|
----------------------------|----------------------------|-----3L---------|
--------------5--7--8--7L---|--7-----7--5--7--5--3-------|----------------|
--------6-------------------|----------------------------|----------------|
----------------------------|----------------------------|----------------|


----------------------------|----------------------------|
----------------------------|----------------------------|
--3-------------------------|----------------------------|
----------------------------|--------------5--7--8--7L---|
----------------------------|--------6-------------------|
----------------------------|----------------------------|


----------------------------|----------------------------|
----------------------------|----------------------------|
----------------------------|----------------------------|
--7-----7--5--7--5--3-------|-----------------3-----5L---|
----------------------------|--------5--3--5-------------|
----------------------------|----------------------------|


----------------------------|----------------------------|
----------------------------|----------------------------|
----------------------------|----------------------------|
--5-------------------------|--------------5--7--8--7L---|
-----------5L-------5-------|--------6-------------------|
----------------------------|----------------------------|


----------------------------|----------------------------|
----------------------------|----------------------------|
----------------------------|----------------------------|
--7-----7--5--7--5----------|--8--------7--7-----8-------|
--------------------8-------|----------------------------|
----------------------------|----------------------------|


----------------------|-------------|----------------------------|
----------------------|-------------|----------------------------|
----------------------|-----5--6----|--7--------------7-----7L---|
-----7--7-----8-------|--8----------|-----------7--7-------------|
----------------------|-------------|----------------------------|
----------------------|-------------|----------------------------|


----------------------------|----------------|----------------|
----------------------------|----------------|----------------|
--7-----7--5----------------|----------------|----------------|
--------------8--7-----8L---|--8-------------|-----5--7--8----|
----------------------------|----------------|----------------|
----------------------------|----------------|----------------|


----------------------------|----------------------------|----------------|
----------------------------|----------------------------|----------------|
--5--------------5-----5L---|--5-----5-------------------|----------------|
-----------5--5-------------|-----------8--7--5-----7L---|--7-------------|
----------------------------|----------------------------|----------------|
----------------------------|----------------------------|----------------|


----------------|----------------------------|----------------------------|
----------------|----------------------------|----------------------------|
--------5--6----|--7--------------7-----7L---|--7-----7--5----------------|
-----8----------|-----------7--7-------------|--------------8--7-----8L---|
----------------|----------------------------|----------------------------|
----------------|----------------------------|----------------------------|


----------|----------------|----------------------------|
----------|----------------|----------------------------|
-----5----|--7-------------|--8--------8--8--7--5-------|
--8-------|----------------|-----------------------7L---|
----------|----------------|----------------------------|
----------|----------------|----------------------------|


----------------------------|----------------|----|----------------------------|
----------------------------|----------------|----|----------------------------|
--------------------5--7L---|--7-------------|----|----------------------------|
--7-----------7--8----------|----------------|----|--------------5--7--8--7L---|
----------------------------|----------------|----|--------6-------------------|
----------------------------|----------------|----|----------------------------|


----------------------------|----------------------------|
----------------------------|----------------------------|
----------------------------|----------------------------|
--7-----7--5--7--5--3-------|-----------------3-----5L---|
----------------------------|--------5--3--5-------------|
----------------------------|----------------------------|


----------------------------|----------------------------|
----------------------------|----------------------------|
----------------------------|----------------------------|
--5-------------------------|--------------5--7--8--7L---|
-----------5L-------5-------|--------6-------------------|
----------------------------|----------------------------|


----------------------------|----------------|----------------------------|
----------------------------|----------------|----------------------------|
----------------------------|-----3L---------|--3-------------------------|
--7-----7--5--7--5--3-------|----------------|----------------------------|
----------------------------|----------------|----------------------------|
----------------------------|----------------|----------------------------|


----------------------------|----------------------------|
----------------------------|----------------------------|
----------------------------|----------------------------|
--------------5--7--8--7L---|--7-----7--5--7--5--3-------|
--------6-------------------|----------------------------|
----------------------------|----------------------------|


----------------------------|----------------------------|
----------------------------|----------------------------|
----------------------------|----------------------------|
-----------------3-----5L---|--5-------------------------|
--------5--3--5-------------|-----------5L-------5-------|
----------------------------|----------------------------|


----------------------------|----------------------------|
----------------------------|----------------------------|
----------------------------|----------------------------|
--------------5--7--8--7L---|--7-----7--5--7--5----------|
--------6-------------------|--------------------8-------|
----------------------------|----------------------------|


----------------------------|----------------------|-------||
----------------------------|----------------------|-------||
----------------------------|----------------------|-------||
--8--------7--7-----8-------|-----7--7-----8-------|-------||
----------------------------|----------------------|-------||
----------------------------|----------------------|-------||




Guitar II

E |----|--------------15-17-18-17L--|--17----17-15-17-15---------|
B |----|--------16------------------|--------------------18------|
G |----|----------------------------|----------------------------|
D |----|----------------------------|----------------------------|
A |----|----------------------------|----------------------------|
E |----|----------------------------|----------------------------|


-----------------------15L--|--15------------------------|
--------15----15-18---------|-----------15L------15------|
-----------17---------------|----------------------------|
----------------------------|----------------------------|
----------------------------|----------------------------|
----------------------------|----------------------------|


--------------15-17-18-17L--|--17----17-15-17-15---------|-----18L--------|
--------16------------------|--------------------18------|----------------|
----------------------------|----------------------------|----------------|
----------------------------|----------------------------|----------------|
----------------------------|----------------------------|----------------|
----------------------------|----------------------------|----------------|


--18------------------------|--------------15-17-18-17L--|
----------------------------|--------16------------------|
----------------------------|----------------------------|
----------------------------|----------------------------|
----------------------------|----------------------------|
----------------------------|----------------------------|


--17----17-15-17-15---------|-----------------------15L--|
--------------------18------|--------15----15-18---------|
----------------------------|-----------17---------------|
----------------------------|----------------------------|
----------------------------|----------------------------|
----------------------------|----------------------------|


--15------------------------|--------------15-17-18-17L--|
-----------15L------15------|--------16------------------|
----------------------------|----------------------------|
----------------------------|----------------------------|
----------------------------|----------------------------|
----------------------------|----------------------------|


--17----17-15-17-15---------|--18-------17-17----18------|
--------------------18------|----------------------------|
----------------------------|----------------------------|
----------------------------|----------------------------|
----------------------------|----------------------------|
----------------------------|----------------------------|


-----17-17----18------|-------|----|----|----|----|----|----|----|
----------------------|-------|----|----|----|----|----|----|----|
----------------------|-------|----|----|----|----|----|----|----|
----------------------|-------|----|----|----|----|----|----|----|
----------------------|-------|----|----|----|----|----|----|----|
----------------------|-------|----|----|----|----|----|----|----|


----------------|----------------------------|----------------------------|
----------------|----------------------------|----------------------------|
----------------|----------------------------|----------------------------|
-----5--7--7----|--7--------4--4--7-----7L---|--7-----8--7--5--4-----5L---|
----------------|----------------------------|----------------------------|
----------------|----------------------------|----------------------------|


----------|----------------|----------------------------|
----------|----------------|----------------------------|
----------|----------------|--5--------5--5-------------|
--5--7----|--8-------------|-----------------8--7-------|
----------|----------------|-----------------------8L---|
----------|----------------|----------------------------|


----------------------------|----------------|----|--------------15-17-18-17L--|
----------------------------|----------------|----|--------16------------------|
----------------------------|----------------|----|----------------------------|
-----------------5--7--8L---|--8-------------|----|----------------------------|
--8-----------8-------------|----------------|----|----------------------------|
----------------------------|----------------|----|----------------------------|


--17----17-15-17-15---------|-----------------------15L--|
--------------------18------|--------15----15-18---------|
----------------------------|-----------17---------------|
----------------------------|----------------------------|
----------------------------|----------------------------|
----------------------------|----------------------------|


--15------------------------|--------------15-17-18-17L--|
-----------15L------15------|--------16------------------|
----------------------------|----------------------------|
----------------------------|----------------------------|
----------------------------|----------------------------|
----------------------------|----------------------------|


--17----17-15-17-15---------|-----18L--------|--18------------------------|
--------------------18------|----------------|----------------------------|
----------------------------|----------------|----------------------------|
----------------------------|----------------|----------------------------|
----------------------------|----------------|----------------------------|
----------------------------|----------------|----------------------------|


--------------15-17-18-17L--|--17----17-15-17-15---------|
--------16------------------|--------------------18------|
----------------------------|----------------------------|
----------------------------|----------------------------|
----------------------------|----------------------------|
----------------------------|----------------------------|


-----------------------15L--|--15------------------------|
--------15----15-18---------|-----------15L------15------|
-----------17---------------|----------------------------|
----------------------------|----------------------------|
----------------------------|----------------------------|
----------------------------|----------------------------|


--------------15-17-18-17L--|--17----17-15-17-15---------|
--------16------------------|--------------------18------|
----------------------------|----------------------------|
----------------------------|----------------------------|
----------------------------|----------------------------|
----------------------------|----------------------------|


--18-------17-17----18------|-----17-17----18------|-------||
----------------------------|----------------------|-------||
----------------------------|----------------------|-------||
----------------------------|----------------------|-------||
----------------------------|----------------------|-------||
----------------------------|----------------------|-------||



Legend
L - tied note
x - dead note
h - hammer on/pull off
b - bend
s - slide
~ - vibrato
g - ghost note
> - accentuated note
t - trill
M - palm mute
. - staccato
P - popping (bass)
S - slapping (bass)
+ - tapping
W - wide vibrato
< - fade in
w - whammy bar
= - tremolo picking
v - brush up
^ - brush down
V - pick stroke up
n - pick stroke down
Login or Register to remove this ad.

1 comment on Milk Bar

Pitch

Note, bass is an octave lower. You can transpose it in GP using tools-transpose +12 semitones (and also tuning to standard if you're a bassist). I was working on a metal arrangement of this song, that's why, but then I realized I had basically transcribed the whole thing anyway. Cheers