Ads

Ikana Valley (Legend of Zelda: Majora's Mask) Guitar Tab

Submitted: Jan 08, 2014 by DjVinylBrony

5
Average: 5 (1 vote)
Download | Listen
Game: Legend of Zelda: Majora's Mask
Composer(s): Koji Kondo, Toru Minegishi
Style: 2 or more instruments, Transcription
Series: Legend of Zelda

AutoScroll: Slow | Medium | Fast
Legend of Zelda MAjora's Mask
Ikana Valley

||------------------------------------
||------------------------------------
||------------------------------------
||6-----0---4---------6-----0---4----9
||--------------3---------------------
||------------------------------------

||-----------------------
||-----------------------
||-----------------------
||6-----0---4------------
||--------------3---1----
||----------------------4

||-----------------------------------
||-----------------------------------
||-----------------------------------
||2-----0---2---------2-----0---2----
||--------------4-------------------4
||-----------------------------------

||-----------------------------
||-----------------------------
||-----------------------------
||2-----0---2------------------
||--------------4------3------2
||-----------------------------


Guitar 2

||7-5-4------8-7--------5-4---3--2
||------5--------9-8--------5-----
||--------------------------------
||--------------------------------
||--------------------------------
||--------------------------------
Login or Register to remove this ad.