Ads

Kakariko Village (Legend of Zelda: A Link to the Past) Ukulele Tab

Submitted: Aug 12, 2018 by Powxjason (Last updated: Aug 19, 2018)

3
Average: 3 (1 vote)
Download | No audio :(
Game: Legend of Zelda: A Link to the Past
Composer(s): Koji Kondo
Style: Fingerstyle, Transcription
Series: Legend of Zelda

AutoScroll: Slow | Medium | Fast
A ||----1----5--|-8-----1---5-|----8--8--10--8-|---10--8--5--5-|-5--3--1-| x2
E ||-1----1----6|-----1---1---|-6--------------|-5-------------|---------|
C ||------------|-------------|----------------|---------------|---------|
G ||------------|-------------|----------------|---------------|---------|

A ||----------------------------------------------------8--6--5--3--1----| 
E ||-6--6--5--8--6--1-----------------6--6--5--8--6--5-------------------|
C ||-------------------3--2--3--5--2-------------------------------------|
G ||---------------------------------------------------------------------|
Login or Register to remove this ad.