Flute Boy's Theme (Legend of Zelda: A Link to the Past) Guitar Tab

Submitted: Jul 30, 2014 by iamHoustonian

5
Average: 5 (3 votes)
Download | Listen
Game: Legend of Zelda: A Link to the Past
Composer(s): Koji Kondo
Style: Alternate picking, Transcription
Series: Legend of Zelda

This song is also called Ocarina Boy's Theme

AutoScroll: Slow | Medium | Fast
Flute Boy's Theme
Legend of Zelda: A Link to the Past
Composer: Koji Kondo
Tabbed by: iamHoustonian
Date Tabbed: 7/29/2014



e|------------------------------------------
B|---------15-------------------15----------
G|---12-14----14-16-------12-14----14-16----
D|12-------------------12-------------------
A|------------------------------------------
E|------------------------------------------

e|------------------------------------------
B|---------17----------------15-------------
G|---14-16----16-17----16-17----14----------
D|14----------------------------------------
A|------------------------------------------
E|------------------------------------------

e|------12-17-14-15----15-14-12----12-------
B|---13-------------------------15----12----
G|12----------------------------------------
D|------------------------------------------
A|------------------------------------------
E|------------------------------------------

e|------------------------------------------
B|---------15----13----13-------------------
G|---12-14----14----------14-11-12----------
D|12----------------------------------------
A|------------------------------------------
E|------------------------------------------



Login or Register to remove this ad.