Ads

Ravio's Theme (Milk Bar) (Legend of Zelda: A Link Between Worlds) Guitar Tab

Submitted: Jan 10, 2014 by hslesperance

5
Average: 5 (2 votes)
Download | Listen
Game: Legend of Zelda: A Link Between Worlds
Composer(s): Ryo Nagamatsu
Style: 2 or more instruments, Transcription
Series: Legend of Zelda

AutoScroll: Slow | Medium | Fast
Ravio's Theme (Milk Bar)
Legend of Zelda: A Link Between Worlds
Composed by Ryo Nagamatsu
Tabbed by hslesperance
1/10/14

Standard Tuning


Guitar 1

  W                       W
|-----------------------|-----------------------|
|-----------------------|-----------------------|
|-----------------------|-----------------------|
|-----------------------|-----------------------|
|-----------------------|-----------------------|
|-----------------------|-----------------------|


  e e        e  e S S  e e e    e  e       e e  e q.       e e       e  e S S e e e   e  e       e e e e  e e
|-7------------10-8-7----7---|---------------7-----------|--------------------------|--------------------------|
|---8-------10--------10---8-|-10----------8---10--------|-7---------7-10-9-7---7---|--------------8-7-8-10----|
|----------------------------|----10---------------------|---7----------------9---7-|-9----------9-------------|
|----------------------------|---------------------------|--------------------------|---10---------------------|
|----------------------------|---------------------------|--------------------------|--------------------------|
|----------------------------|---------------------------|--------------------------|--------------------------|


   e  e        e  e  S  S  e  e  e    S  S  e        e e h         e  e       e e  S S e e  e   S  S e       e e h
|----------------10----------------|----------------10-----------|--------------8-------------|--------------8--------------|
|-11----------11----13-11-10-11----|-------10--------------------|-9----------9---11-9-8-9----|------8----------------------|
|----12-------------------------12-|-11-12-----------------------|---10--------------------10-|-9-10------------------------|
|----------------------------------|-----------------------------|----------------------------|-----------------------------|
|----------------------------------|-----------------------------|----------------------------|-----------------------------|
|----------------------------------|-----------------------------|----------------------------|-----------------------------|


  H             Q   Q     S S E +H        Q     H             Q   Q     S S E +H        Q
|-----------------------|-3-------------------|-----------------------|-----3-(3)-------------|
|-3-------------3---6---|---6-5-(5)-----------|-3-------------3---6---|-5-6-------------------|
|-----------------------|---------------------|-----------------------|-----------------------|
|-----------------------|---------------------|-----------------------|-----------------------|
|-----------------------|---------------------|-----------------------|-----------------------|
|-----------------------|---------------------|-----------------------|-----------------------|


  e e  e   e S S  e e e    Q   Q   Q   Q     S  S  E H.
|-7-------10-8-7----7---|--------------8--|--7--7--7-------*|
|---8-10---------10---8-|------8--10------|----------------*|
|-----------------------|-10--------------|----------------*|
|-----------------------|-----------------|----------------*|
|-----------------------|-----------------|----------------*|
|-----------------------|-----------------|----------------*|




Guitar 2

  E T T T T E e E e E e   E T T T T E e E e E e
|-----------------------|-----------------------|
|---1---1---1-1---1---1-|---1---1---1-1---1---1-|
|-----2---2---2---2---2-|-----2---2---2---2---2-|
|-3-------------3---3---|-3-------------3---3---|
|-----------------------|-----------------------|
|-----------------------|-----------------------|


  E T T T T  E  e E    e E e    E  T T T T E e  E e  E e   E T T T T E  e E   e E e   E  T T T T E e E e  E e
|----------------------------|-------------------------0-|--------------------------|--------------------------|
|---1---1----1--1------1---1-|---------------0----2----2-|--------------------------|--------------------------|
|-----2---2-----2------2---2-|-----2---2---2-0----2--2---|---2---2---2--2-----2---2-|----0---0---0-0---2----2--|
|-3---------------3------3---|-------3---3------2--------|-----4---4----4-----4---4-|------2---2---2---4----4--|
|----------------------------|--5------------------------|-5--------------5-----5---|-3--------------5----5----|
|----------------------------|---------------------------|--------------------------|--------------------------|


   E  T T T T  E  e  E     e  E  e    E     T T T T  E e E e E e   E  T T T T E e  E   e E  e   E    T T T T E e E e E e
|----------------------------------|-----------------------------|----------------------------|-----------------------------|
|-----3---3----3--3--------3-----3-|-----------------------------|----1---1---1-1------1----1-|-----------------------------|
|-------3---3-----3--------3-----3-|--------2---2----2-2---2---2-|------1---1---1------1----1-|------0---0---0-0---0---0----|
|--5-----------------5--------5----|----------4---4----4---4---4-|-3---------------3-----3----|--------2---2---2---2---2----|
|----------------------------------|--5------------------5---5---|----------------------------|-3----------------3---3------|
|----------------------------------|-----------------------------|----------------------------|-----------------------------|


  E T T T T E e E e E e   E   E  e  e E e E e   E T T T T E e E e E e   E   E  e  e E e S S E
|-----------------------|---------------------|-----------------------|-----------------------|
|-----------------------|---------------------|-----------------------|-----------------------|
|-------------3---------|-----x--0--0---0---0-|-------------3---------|-----x--0--0---0-------|
|---3---3---3-3---3---3-|-----x--2--2---2---2-|---3---3---3-3---3---3-|-----x--2--2---2---0-2-|
|-----5---5-------5---5-|-3-----------3---3---|-----5---5-------5---5-|-3-----------3---3-----|
|-6-------------6---6---|---------------------|-6-------------6---6---|-----------------------|


  e E  H.                  Q   Q   Q   Q     S  S  E H.
|-5---------------------|-----------------|-^7-!7-!7-------*|
|-----------------------|-----------------|----------------*|
|-2---------------------|-^3--^3--^5--^2--|-^4-!4-!4-------*|
|-3---------------------|-^5--^5--^7--^3--|-^5-!5-!5-------*|
|-----------------------|-^6--^6--^8--^5--|----------------*|
|-----------------------|-----------------|----------------*|

x - muted note
^ - downward arpeggio
! - upward arpeggio

W - whole
H - half
Q - quarter
E - 8th
S - 16th
T - 32nd
+ - note tied to previous
. - note dotted

Uncapitalized letters represent notes that are staccato (1/2 duration)
Login or Register to remove this ad.

1 comment on Ravio's Theme (Milk Bar)

The part where the guitar

The part where the guitar takes over the melody could be played on just one guitar, but it's kind of tricky.

  E T T T T E e E e E e   E   E  e  e E e E e   E T T T T E e E e E e   E   E  e  e E e S S E
|-----------------------|-3-------------------|-----------------------|-----3-----------------|
|-3-------------3---6---|---6-5---------------|-3-------------3---6---|-5-6-------------------|
|-------------3---------|-----x--0--0---0---0-|-------------3---------|-----x--0--0---0-------|
|---3---3---3-3---3---3-|-----x--2--2---2---2-|---3---3---3-3---3---3-|-----x--2--2---2---0-2-|
|-----5---5-------5---5-|-3-----------3---3---|-----5---5-------5---5-|-3-----------3---3-----|
|-6-------------6---6---|---------------------|-6-------------6---6---|-----------------------|