Ads

Kass’ Theme (The Legend of Zelda: Breath of the Wild) Guitar Tab

Submitted: Jun 21, 2017 by bravetiger1 (Last updated: Jul 19, 2018)

5
Average: 5 (1 vote)
Download | Listen
Game: The Legend of Zelda: Breath of the Wild
Composer(s): Yasuaki Iwata, Manaka Kataoka
Style: Arrangement, Fingerstyle
Series: Legend of Zelda

AutoScroll: Slow | Medium | Fast
The Legend Of Zelda: Breath of the Wild
Kass’ Theme
Manaka Kataoka & Yasuaki Iwata
bravetiger1
June 21, 2017



3/4

 |       |       |         |       |       |        |       |       |        
|------------------------| ------------------------|------------------------|
|------------------------| ------------------------|--------4-------4-------|
|--------------------5---| 4-------2-------2-------|--------1-------1---4---|
|----2-----3-2-1-2-------| --------3-------3-------|----2---2-3-2-1-2-------|
|------------------------| 7-------5-------5-------|------------------------|
|------------------------| 7-----------------------|0-----------------------|
 
 |       |       |        |       |       |        |       |       |        
|------------------------|--------------------3---|1-----------1---1-------|
|------------------------|--------------------5---|3-----------3---3-------|
|2-------2-------2-------|2-------0-4-2-1-2-------|--------2-------2-------|
|--------2-------2-------|--------2-------2-------|0-------3-------3-------|
|0-------3-------3-------|0-------4-------4-------|--------5-------5-------|
|------------------------|------------------------|------------------------|
 
 |       |       |        |       |       |        |       |       |        
|1-------3-------1-------|1-------0---------------|--------------------0---|
|3-------5-------3-------|3-------1---------------|------------1---3-------|
|--------4-------4-------|--------0-------0-------|--------0-------0-------|
|--------3-------3-------|--------2-------2-------|--------2-------2-------|
|--------5-------5-------|3-------3-------3-------|3-------3-------3-------|
|3-----------------------|------------------------|------------------------|
 
 |       |       |        |       |       |        |       |       |        
|1-----------1---1-------|------------------------|0-----------0---0-------|
|5-----------3---3-------|------------3---5---3---|3-----------1---1-------|
|--------3-------3-------|--------3-------3-------|--------2-------2-------|
|--------3-------3-------|--------3-------3-------|--------2-------2-------|
|1-------5-------5-------|1-------5-------5-------|0-------3-------3-------|
|------------------------|------------------------|------------------------|
 
 |       |       |        |       |       |        |       |       |        
|------------------------|------------------------|0-------0---------------|
|------------------------|------------3---4-------|0---------------1-------|
|--------0-------2---4---|5-------2---2---2-------|------------------------|
|--------2-------2-------|7-------3-------3-------|6-----------------------|
|--------3-------3-------|8-------3-------3-------|------------------------|
|3-----------------------|------------------------|0-----------------------|
 
 |       |       |        |       |       |        
|------------------------|------------------------|
|------------------------|------------------------|
|2-----------------------|--------------------5---|
|--------2---------------|----2-----3-2-1-2-------|
|0---------------3-------|0-----------------------|
|------------------------|------------------------|

Login or Register to remove this ad.

2 comments on Kass’ Theme

I think measure 3 sounds

I think measure 3 sounds better as:

|-------------------------|
|--------3-------3--------|
|--------1-------1---4----|
|----2---2-3-2-1-2--------|
|0------------------------|

Instead of

|-------------------------|
|--------4-------4--------|
|--------1-------1---4----|
|----2---2-3-2-1-2--------|
|0------------------------|

However, while it might sound better as a D on the B String, the actual song does have that as Eb. Play it as you will.

asdf

Sounds great when I put it into Guitar Pro but it would be nicer if it was actually humanly possible to play :D The final chords of bars 6, 7 and 10 aren't possible to play with one hand