Our Children Taken (Legend of Zelda: Twilight Princess) Guitar Tab

Submitted: Sep 01, 2009 by hslesperance (Last updated: Feb 22, 2011)

5
Average: 5 (3 votes)
Download | Listen
Game: Legend of Zelda: Twilight Princess
Composer(s): Koji Kondo, Asuka Ohta, Toru Minegishi
Style: 2 or more instruments, Transcription
Series: Legend of Zelda

This song is also called Unhappy Homes

AutoScroll: Slow | Medium | Fast
Our Children Taken
The Legend of Zelda: Twilight Princess
Composed by Koji Kondo
Tabbed by hslesperance
11/28/08

Standard Tuning


Guitar 1 - Melody

e---0--------------------------0------------1-3---------------
B----------------------------3-------------------------1--3---
G-------------------------------------------------------------
D-------------------------------------------------------------
A-------------------------------------------------------------
E-------------------------------------------------------------

e---0--------------0--------------------5--3--------1-0-------
B----------------3--------------------------------------3-----
G-------------------------------------------------------------
D-------------------------------------------------------------
A-------------------------------------------------------------
E-------------------------------------------------------------

e----------------5--------7-----------------------------------
B---1------------------------8-------------------6--5---------
G-------------------------------------------------------------
D-------------------------------------------------------------
A-------------------------------------------------------------
E-------------------------------------------------------------

e---1-3-----5--------------------------3--------------0-------
B--------------------0-3--------------------------------------
G-------------------------------------------------------------
D-------------------------------------------------------------
A-------------------------------------------------------------
E-------------------------------------------------------------

e--------------5--7-------------8-7-----------10--------------
B---3----5--8--------------------------------------8--10------
G-------------------------------------------------------------
D-------------------------------------------------------------
A-------------------------------------------------------------
E-------------------------------------------------------------

e----------------------------1-0------------------------------
B---8-6-5--------------------------3--------------------------
G-------------------------------------------------------------
D-------------------------------------------------------------
A-------------------------------------------------------------
E-------------------------------------------------------------

Guitar 2 - Rhythm

e---------1--------------0--------------1--------------0------
B------1--------------1--------------1--------------1---------
G---2--------------2--------------2--------------2------------
D-------------------------------------------------------------
A-------------------------------------------------------------
E-------------------------------------------------------------

e---------1--------------0--------------1--------------0------
B------1--------------1--------------1--------------1---------
G---2--------------2--------------2--------------2------------
D-------------------------------------------------------------
A-------------------------------------------------------------
E-------------------------------------------------------------

e---------0--------------0--------------1--------------0------
B------0--------------0--------------1--------------1---------
G---0--------------0--------------2--------------2------------
D-------------------------------------------------------------
A-------------------------------------------------------------
E-------------------------------------------------------------

e---------1--------------0--------------0--------------0------
B------1--------------1--------------0--------------0---------
G---2--------------2--------------0--------------0------------
D-------------------------------------------------------------
A-------------------------------------------------------------
E-------------------------------------------------------------

e---------0-----0-----------0-----0---------------------------
B------1-----1-----1-----1-----1-----1--------3-----3---------
G---2-----------------2--------------------0-----0-----0------
D---------------------------------------2---------------------
A-------------------------------------------------------------
E-------------------------------------------------------------

e---------------------------0-----0-----------0-----0---------
B---------3-----3---------------------------------------------
G------0-----0-----0-----2-----2-----2-----2-----2-----2------
D---2-----------------0-----------------0---------------------
A-------------------------------------------------------------
E-------------------------------------------------------------

e---------------------------------------------0-----0---------
B---------3-----3-----------3-----3--------1-----1-----1------
G------0-----0-----0-----0-----0-----0--2---------------------
D---2-----------------2---------------------------------------
A-------------------------------------------------------------
E-------------------------------------------------------------

e---------0-----0---------------------------------------------
B------1-----1-----1--------3-----3-----------3-----3---------
G---2--------------------0-----0-----0-----0-----0-----0------
D---------------------2-----------------2---------------------
A-------------------------------------------------------------
E-------------------------------------------------------------

e---------0-----0-----------2-----2-----------0-----0---------
B------------------------0-----0-----0-----1-----1-----1------
G------2-----2-----2--0-----------------2---------------------
D---0---------------------------------------------------------
A-------------------------------------------------------------
E-------------------------------------------------------------

e-------------------------------------------------------------
B---------3-----3---------------------------------------------
G------0-----0-----0------------------------------------------
D---2---------------------------------------------------------
A-------------------------------------------------------------
E-------------------------------------------------------------

Guitar 3 - Rhythm

e---0-----0-------0-----0-------0-----0-------0-----0---------
B-------------------------------------------------------------
G------2-----2-------2-----2-------2-----2-------2-----2------
D-------------------------------------------------------------
A-------------------------------------------------------------
E-------------------------------------------------------------

e--------------------------------0-----0-------0-----0--------
B---3-----3--------3-----3------------------------------------
G------2-----2--------2-----2-------2-----2-------2-----2-----
D-------------------------------------------------------------
A-------------------------------------------------------------
E-------------------------------------------------------------

e---0-----0-------0-----0-------------------------------------
B-------------------------------3-----3-------1--0--3---------
G------2-----2-------2-----2-------2-----2-------------0------
D-------------------------------------------------------------
A-------------------------------------------------------------
E-------------------------------------------------------------

e---0-----0-------0-----0-------------------------------------
B-------------------------------3-----3-------3-----3---------
G------2-----2-------2-----2-------2-----2-------0-----0------
D-------------------------------------------------------------
A-------------------------------------------------------------
E-------------------------------------------------------------

e---0-----0-------0-----0-------------------------------------
B-------------------------------3-----3-------3-----3---------
G------2-----2-------2-----2-------2-----2-------0-----0------
D-------------------------------------------------------------
A-------------------------------------------------------------
E-------------------------------------------------------------

e---0-----0-------0-----0-------------------------------------
B-------------------------------3-----3-------3-----3---------
G------2-----2-------2-----2-------0-----0-------0-----0------
D-------------------------------------------------------------
A-------------------------------------------------------------
E-------------------------------------------------------------

e---0-----0-------2-----2-------0-----0-----------------------
B--------------------0-----0-------1-----1----3-----3---------
G------2-----2-----------------------------------2-----2------
D-------------------------------------------------------------
A-------------------------------------------------------------
E-------------------------------------------------------------

Guitar 4 - Harmony 

00:25

e---3----1----0----------------------------------7----3-------
B----------------------3--1--0--1-----------------------------
G-------------------------------------------------------------
D-------------------------------------------------------------
A-------------------------------------------------------------
E-------------------------------------------------------------

e---7---------5-----------------------------------------------
B---8----6----5--------------------3--1--3----------------3---
G--------7-------------------------2--2--2--------------------
D-------------------------------------------------------------
A-------------------------------------------------------------
E-------------------------------------------------------------

e---0------------5------------7--------------------3----5-----
B-------------------------------------------------------------
G-------------------------------------------------------------
D-------------------------------------------------------------
A-------------------------------------------------------------
E-------------------------------------------------------------

e--------------------------------------------1------------3---
B---3--------3-1-0--------------3-----------------------------
G------------------2------------------------------------------
D-------------------------------------------------------------
A-------------------------------------------------------------
E-------------------------------------------------------------
Login or Register to remove this ad.

3 comments on Our Children Taken

!!!!!

5

THIS is WONDERFUL!!! I really do thank you for putting all of the harmony, guitar 2, etc...
I've always loved this song, and now I can play it on the guitar!
WAY TO GO

hi

Im just one person with two hands D:
so can I try to convert this to a single guitar piece please?
Ok byee :3

amazing

5

this tab is amazing haha ^^ but i havnt a friend who play guitar too so i can just play one part :( ^^