Ads

Ilia's Theme (Legend of Zelda: Twilight Princess) Guitar Tab

Submitted: Mar 28, 2010 by diralark

4.75
Average: 4.8 (4 votes)
Download | Listen
Game: Legend of Zelda: Twilight Princess
Composer(s): Koji Kondo, Asuka Ohta, Toru Minegishi
Style: Arrangement, Fingerstyle, Transcription
Series: Legend of Zelda

AutoScroll: Slow | Medium | Fast
Ilia's Theme from Legend of Zelda : Twilight Princess                                   

Music by Koji Kondo, Asuka Ohta, Toru Minegishi >> piano arrang. by Kimberly Boman  >> tab by Diralark   

Guitar, tempo=86
                             ^                        ^                      
     H.           E  E       E  E  E  Q.     E  E     E  E  E  Q.     E  E   
E||---------------8--7--||---3---------------8--7--|------------------8--7--|
B||---------------------||-------------------------|--8---------------------|
G||---------------------||*--------0--2------------|--------0---------------|
D||---------------------||*------------------------|-----------7------------|
A||---------------------||------3------------------|------------------------|
E||---------------------||---1---------------------|--0--8------------------|


                             ^                         ^                      
  E  E  E  E  E  E  E  E     E  E  E  E  Q    E  E     E  E  E  Q.     E  E   
-----------------1--0--5--|--3----------------8--7--|--3---------------8--7--|
--8-----------------------|-------------------------|------------------------|
--------------0-----------|--------------0----------|--------0--2------------|
-----------7--------------|--------0--2-------------|------------------------|
--------8-----------------|--3----------------------|-----3------------------|
-----8--------3-----------|-----3-------------------|--1---------------------|


  ^                                    ^                                      
  E  E  E  Q.     E  E     E  E  E  E  E  E  E  E     E  E  E  Q    E  E  E   
------------------8--7--|-----------------0--1--0--|-------------------------|
--8---------------------|--8-----------------------|--1-------------1--0--1--|
--------0---------------|--------------------------|-----------0-------------|
-----------7------------|-----------7--0-----------|-----0--2----------------|
------------------------|--------8-----------------|--3----------------------|
--0--8------------------|-----8--------6-----------|-------------------------|


  E  E  E  Q    E  E  E     E  E  E  Q    E  E  E     E  E  E  E  E  E  E  E   
--3-------------1--0--5--|--3-------------1--0--5--|--3--------------1--0-----|
-------------------------|-------------------------|--------------------------|
-------------------------|-------------------------|-----------------------2--|
-----------0-------------|--------0--2-------------|--------0--2--------------|
--------3----------------|-------------------------|-----1--------1-----0--3--|
-----3-------------------|--0--3-------------------|--1-----------------------|


                           ^                          ^                         
  E  E  E  Q.     E  E     E  E  E  Q    E  E   E     E  E  E  Q    E   E   E   
--0---------------5--7--|--8-------------7--5--10--|--8----------------10--12--|
------------------------|--------------------------|---------------------------|
------------------------|--------0--2--------------|--------0------------------|
------------------------|----------------3---------|-----------7---------------|
-----------3------------|--8----------------3------|----------------7----------|
-----0--3---------------|-----8--------------------|--0--8--------------8------|


                                 ^                   ^        
   E  E   E  E   E  E  E  E      E   E  E  E  E  E   E  E     
--13------------15-----------|--10-------------------8--7---||
-----------------------------|----------------------10------||
---------10------------------|----------------0-----10-----*||
------8------8------8-----8--|-------------0-----7---------*||
-----------------------8-----|--10--10----------------------||
-----------------------------|----------8-------------------||


  W                  
--L----------------||
-------------------||
-------------------||
-------------------||
-------------------||
-------------------||

Duration Legend
---------------
W - whole
H - half
Q - quarter
E - 8th
S - 16th
. - note dotted

Tablature Legend
----------------
L - tied note
< - fade in
^ - brush up
v - brush down

Login or Register to remove this ad.

2 comments on Ilia's Theme

Now I prefer play Bar 14 like

Now I prefer play Bar 14 like this

  ^                            
  E  E   E   Q     E   E   E   
--8-----------------------10--|
------------------12--10------|
------------------------------|
------------------------------|
--8-----10--12-----8----------|
-----8-----------------8------|

instead of

  ^                        
  E  E  E  Q    E  E   E   
--8-------------7--5--10--|
--------------------------|
--------0--2--------------|
----------------3---------|
--8----------------3------|
-----8--------------------|

Them same idea for the last bar :

   ^                       ^         
   E   E   E   E   E   E   E   E     
--10-------------------------------||
--------------------------13--12---||
--------------------------10------*||
----------10----------------------*||
--10--10----------10--12-----------||
--------------10-------------------||

instead of

   ^                   ^        
   E   E  E  E  E  E   E  E     
--10-------------------8--7---||
----------------------10------||
----------------0-----10-----*||
-------------0-----7---------*||
--10--10----------------------||
----------8-------------------||

Not certain it deserves a update since it's a question of choice.

btw the ost ^^ : http://www.youtube.com/watch?v=uKgr0_7NbFU

Ilia's theme

What do you think of my Ilia's theme transcript? First of all, I lowered the sixth rope in d to get all the bass range and to make it easier to run. Also in my transcript all the notes are played in their actual height.https://www.youtube.com/watch?v=R76x-FwI3Cohttps://www.gametabs.net/legend-zelda-twilight-princess/ilias-theme-0