Login or Register to remove this ad.

Hyrule Castle Town South / East (Legend of Zelda: Twilight Princess) Guitar Tab

Submitted: Sep 01, 2009 by hslesperance (Last updated: Feb 15, 2011)

4
Average: 4 (3 votes)
Download | Listen
Game: Legend of Zelda: Twilight Princess
Composer(s): Koji Kondo, Asuka Ohta, Toru Minegishi
Style: Transcription
Series: Legend of Zelda

AutoScroll: Slow | Medium | Fast
The Legend of Zelda: Twilight Princess
Hyrule Castle Town South / East
Composed by Koji Kondo
Tabbed by hslesperance
9/14/08

Standard Tuning

e----------------3--3-3-3-3-3-3---------------------------------------------
B---------------------------------------------------------------------------
G----------------0----------------------------------------------------------
D-----2------2-4------------------------------------------------------------
A---4------4----------------------------------------------------------------
E---------------------------------------------------------------------------

e---10-----------------------------------------------7----------------------
B-------10-10-10--10--8--8p7h8p7----10-10-10--10--8-----10--9--10--10-10----
G---------------------------------------------------------------------------
D---------------------------------------------------------------------------
A---------------------------------------------------------------------------
E---------------------------------------------------------------------------

e-----------------------3-----2-----0-----2---------------------------------
B---10--10--8--7h8p7--------------------------------------------------------
G--------------------------2-----2-----2------------------------------------
D---------------------------------------------------------------------------
A---------------------------------------------------------------------------
E---------------------------------------------------------------------------

e---10-----------------------------------------------7----------------------
B-------10-10-10--10--8--8p7h8p7----10-10-10--10--8-----10--9--10--10-10----
G---------------------------------------------------------------------------
D---------------------------------------------------------------------------
A---------------------------------------------------------------------------
E---------------------------------------------------------------------------

e---------------------------------------------------------------------------
B---10--10--8--7h8p7----8---------------------------------------------------
G---------------------------------------------------------------------------
D---------------------------------------------------------------------------
A---------------------------------------------------------------------------
E---------------------------------------------------------------------------

e---15-----------------------------------------------------10---------------
B-------15-15-15--15--13--13p12h13p12--------------------------10-10-10-8---
G----------------------------------------12----14----12---------------------
D---------------------------------------------------------------------------
A---------------------------------------------------------------------------
E---------------------------------------------------------------------------

e------------3-----2-----0-----2--------------------------------------------
B---7h8p7-------------------------------------------------------------------
G---------------2-----2-----2-----------------------------------------------
D---------------------------------------------------------------------------
A---------------------------------------------------------------------------
E---------------------------------------------------------------------------

e---15----------------------------------------------------------------------
B-------15-15-15--15--13--13p12h13p12--------------------15-----------------
G--------------------------------------12----14----12-------14-14-14--14--12
D---------------------------------------------------------------------------
A---------------------------------------------------------------------------
E---------------------------------------------------------------------------

e---------------3-----2-----0-----2-----------------------------------------
B---------------------------------------------------------------------------
G---11h12p11-------2-----2-----2--------------------------------------------
D---------------------------------------------------------------------------
A---------------------------------------------------------------------------
E---------------------------------------------------------------------------

e---12-12-12-12------------------7--------10-10-10-10-----------------------
B------10-------10-10-10-10--10-----10-----------------7-7-7-8--7-----7-----
G------------------------------------------------------------------9--------
D---------------------------------------------------------------------------
A---------------------------------------------------------------------------
E---------------------------------------------------------------------------

e---12-12-12-12------------------7--------10-10-10-10-----------------------
B------10-------10-10-10-10--10-----10-----------------7-7-7-8--7-----7-----
G------------------------------------------------------------------9--------
D---------------------------------------------------------------------------
A---------------------------------------------------------------------------
E---------------------------------------------------------------------------

e---12-12-12-12-12-3-3-3-3---------------------------------3--3-3-3-3-3-3---
B--------------------------0-0-0-0------------------------------------------
G----------------------------------------------------------0----------------
D-----------------------------------------------2------2-4------------------
A----------------------------------------0--0-4------4----------------------
E----------------------------------0-0-0------------------------------------

h - hammer on
p - pull off
Login or Register to remove this ad.