Ads

Linebeck's Theme (Legend of Zelda: Phantom Hourglass) Guitar Tab

Submitted: Jul 01, 2009 by kenor (Last updated: Jan 02, 2010)

5
Average: 5 (10 votes)
Download | Listen
Game: Legend of Zelda: Phantom Hourglass
Composer(s): Toru Minegishi, Kenta Nagata
Style: Arrangement, Fingerstyle
Series: Legend of Zelda

AutoScroll: Slow | Medium | Fast
Linebeck's Theme 
~The Legend of Zelda: Phantom Hourglass~ 
Composed by: Kenta Nagata and Toru Minegishi 
Arranged by: kenor

Rhytm: 4/4 metrum
Many people consider this tab too difficult to play, I hope you'll like it.

     .     .  .     .  .  .        .  .  .     .  .  .
     E  E  E  E  E  E  E  E     E  E  E  E  E  E  E  E
E||-----0--------------------|--0-----------2-----------|
B||--------4-----0--------0--|-----------0-----------0--|
G||-----------5-----2--0-----|--------0--0--------2--2--|
D||-----------------------4--|-----2--2--------1--1-----|
A||--2-----------------------|-----2--------2-----------|
E||--------------------------|--0-----------------------|

     .  .  .           .  .  .     .  .  .  .     .
     E  E  E  E     E  E  E  E     E  E  E  E  E  E  Q
E||--3--5--7--3h5P3-0--------0--|-----5--7-----0----------|
B||-----0--0--------------2-----|--8--5--5--8--3-----3----|
G||-----0--0-----------0--0-----|--5--5--5--5--------4----|
D||--0-----------------2--------|-----------------4-------|
A||-----------------0-----------|--0-----------2----------|
E||-----------------------------|-------------------------|

     .  .     .     .     .        .  .  .     .  .  .
     E  E  E  E  E  E  E  E     E  E  E  E  E  E  E  E
E||--------0-----------------|--0-----------2-----------|
B||-----3--0--------------0--|-----------0-----------0--|
G||--4--4--------0-----0-----|--------0--0--------2--2--|
D||--4--0-----2--2--2--2-----|-----2--2--------1--1-----|
A||--2--------2-----2--------|-----2--------2-----------|
E||--------0-----------------|--0-----------------------|

     .  .  .           .  .  .     .  .  .  .     .
     E  E  E  E     E  E  E  E     E  E  E  E  E  E  Q
E||--3--5--7--3h5P3-0--------0--|-----5--7-----0----------|
B||-----0--0--------------2-----|--8--5--5--8--3-----3----|
G||-----0--0-----------0--0-----|--5--5--5--5--------4----|
D||--0-----------------2--------|-----------------4-------|
A||-----------------0-----------|--0-----------2----------|
E||-----------------------------|-------------------------|

     .  .     .     .     .        .  .  .      .  .  .
     E  E  E  E  E  E  E  E     E  E  E  E  E   E  E  E
E||--------0--------------0--|--8--------8--10--8--7------|
B||-----3--0-----------------|--------5---------7--7--10--|
G||--4--4--1-----1-----1-----|-----5--5---------7--7--7---|
D||--4--0-----2--2--2--2-----|-----7--------0-------------|
A||--2--------2-----2--------|--0-------------------------|
E||--------0-----------------|----------------------------|

        .  .  .     .  .  .        .  .  .  .     .  .
     E  E  E  E  E  E  E  E     E  E  E  E  E  E  E  E
E||--5-----3--5--7--------7--|--5--------3-----8--7--5--|
B||--------3--3--0-----------|--------6-----6--6--6--6--|
G||-----4--4--4--------------|-----5--5--------5--5--5--|
D||-----5-----------5--5-----|-----3--------------------|
A||-----------------5--5-----|--0-----------0-----------|
E||--3-----------3-----------|--------------------------|

        .  .     .     .           .  .  .      .      .  . 
     E  E  E  E  E  E  E  E     E  E  E  E  E   E      E  E
E||--7-----------------------|--8--------8--10--8h10P8-7------|
B||--8-----------8--8-----8--|--------5---------7------7--10--|
G||--------9--9--9--9--9-----|-----5--5---------7------7--7---|
D||-----9--9--9--------9-----|-----7--------0-----------------|
A||-----7--------------------|--0-----------------------------|
E||--0-----------------------|--------------------------------|

        .  .  .     .  .  .        .  .  .     .  .  .   
     E  E  E  E  E  E  E  E     E  E  E  E  E  E  E  E
E||--5-----3--5--7-----6--7--|--8--------5--9--------12--|
B||--------3--3-----5--5--5--|-----5--5--------8--8------|
G||-----4--4--4-----4--------|-----5--5--------9--9------|
D||-----5--------------------|---------------------------|
A||--------------------------|--0-----------0------------|
E||--3-----------4-----------|---------------------------|

         .     .     .     .        .  .  .     .  .  .
     E   E  E  E  E  E  E  E     E  E  E  E  E  E  E  E
E||--11-----------------------|--0-----------2-----------|
B||------7--7--------7--7--0--|-----------0-----------0--|
G||------8--8--8--8--8--8-----|--------0--0--------2--2--|
D||------------7--7-----------|-----2--2--------1--1-----|
A||---------------------------|-----2--------2-----------|
E||--7------------------------|--0-----------------------|

     .  .  .           .  .  .     .  .  .  .     .
     E  E  E  E     E  E  E  E     E  E  E  E  E  E  Q
E||--3--5--7--3h5P3-0--------0--|-----5--7-----0----------|
B||-----0--0--------------2-----|--8--5--5--8--3-----3----|
G||-----0--0-----------0--0-----|--5--5--5--5--------4----|
D||--0-----------------2--------|-----------------4-------|
A||-----------------0-----------|--0-----------2----------|
E||-----------------------------|-------------------------|

     .  .     .     .     .        .  .  .     .  .  .
     E  E  E  E  E  E  E  E     E  E  E  E  E  E  E  E
E||--------0-----------------|--0-----------2-----------|
B||-----3--0--------------0--|-----------0-----------0--|
G||--4--4--------0-----0-----|--------0--0--------2--2--|
D||--4--0-----2--2--2--2-----|-----2--2--------1--1-----|
A||--2--------2-----2--------|-----2--------2-----------|
E||--------0-----------------|--0-----------------------|

     .  .  .           .  .  .     .  .  .  .     .          .  .  ^
     E  E  E  E     E  E  E  E     E  E  E  E  E  E  E       E  E  H
E||--3--5--7--3h5P3-0--------0--|-----5--7-----0----------|--------0---||
B||-----0--0--------------2-----|--8--5--5--8--3-----3----|-----3--0---||
G||-----0--0-----------0--0-----|--5--5--5--5--------4----|--4--4--0---||
D||--0-----------------2--------|-----------------4-------|--4--0------||
A||-----------------0-----------|--0-----------2----------|--2---------||
E||-----------------------------|-------------------------|--------0---||


Legend:
-------


H - half
Q - quarter
E - 8th
h - hammer-on
p - pull-off
. - staccato (mute immediately)
^ - brush up
Login or Register to remove this ad.

24 comments on Linebeck's Theme

Umm...well I never played

5

Umm...well I never played this but its beautiful and simple to play. 5 Stars!

Define simple

Define simple

Make a video to prove this is

Make a video to prove this is easy, i dare you

I could do a really shitty

I could do a really shitty recording (my camera is TERRIBLE) and it wouldn't be my best performance but it would demonstrate that the song is really not that hard to play.

I think the hard part about the song would be making sure the right notes are ringing out or not allowed to ring out which is not something I'm good at managing.

If there's something in specific you are struggling with please post about it though and I'll do my best to help.

yeah there is something

yeah there is something specific I'm struggling with. The whole frigging song.

Andarnio said yeah there is

Andarnio said

yeah there is something specific I'm struggling with. The whole frigging song.

How long have you been playing guitar for? Maybe you should learn some basic chords or easier songs first. You can also just play the highest note and ignore the rest if you really want.

about 9 years. dont take me

about 9 years. dont take me for a begginner

Karathrow is right, the song

Karathrow is right, the song isn't too hard, intermediate level at most. It's just a bunch of barre chords.

IMO, the time since you've started playing an instrument isn't a good judge of your skill level. I started playing 10 months ago but I try to deliberately practice for over 2 hours/day.

EDIT: I started with classical guitar and I feel that really helped me improve my fingerstyle technique, you should check out some classical guitar books such as "Frederick Noad's Solo Guitar".

to quote the top of the text

to quote the top of the text above the tab:
"Many people consider this tab too difficult to play, I hope you'll like it!"

edit: now that I've tried it again, I'm starting to get the hang of it and it really isn't as hard as I thought when i first tried it. But when he told me

Maybe you should learn some basic chords or easier songs first. You can also just play the highest note and ignore the rest if you really want.

that's pretty much saying "oh you cant play this song? go learn twinkle little star first!"

you two are what's wrong with this community and I except an apology

How long have you been playing guitar for? Maybe you should learn some basic chords

the time since you've started playing an instrument isn't a good judge of your skill level

Andarnio saidyou two are

Andarnio said

you two are what's wrong with this community and I except an apology

I believe you mean expect, since no one offered to apologize in the first place.

from my outside point of view

from my outside point of view it doesnt look like karathrow meant to insult you, im sure hes sorry that you perceived it as such even if hes not sorry for saying it

typo

typo. also that would be accept, not except

The chords aren't too bad I

The chords aren't too bad I don't think, but I've got a feeling it's the picking pattern he's having trouble with. That's what I'm struggling with too. Which fingers do you use when playing the parts with lots of 2-note chords moving around the strings, like the start of bar 2? I'm trying it with index and middle, but I'm finding it quite tricky.

Also, you shouldn't assume someone is a beginner because they can't play a song you can. I admit, it's an easy trap to fall into, assuming that a song you find easy to play is easy for everyone, but you have to look at things objectively.

Those three 2-note chords are

Those three 2-note chords are played in this order like so:

1) P + I
2) I + M
3) M + A

P = thumb, I = index, M = middle, A = ring.
Hope that helps.

Yeah, I think that makes more

Yeah, I think that makes more sense, thanks. Still a little tricky, but it'll come with practice.

Playing it like that got me thinking you could probably also do it like:

1) P + I
2) P + M
3) P + A

I'll give both a try and see which is best.
Thanks again.

I really like this one, great

5

I really like this one, great job!

Awesome!

Funny, I never would've expected to see one of the better tabs on a game like this :P
Bravo

This theme is so great.

This theme is so great. Probably the best of the whole game
the midi sounds also great. thanks

The tuning

What tuning is this in?

Standard. See the EADGBE

Standard. See the EADGBE along the left? That indicates the tuning.

This is a really really cool

5

This is a really really cool tab. I love all of your work though kenor you pick the best pieces.

Anywho I'm struggling with keeping the notes muted immediately after playing them. It's hard for me to keep it all in mind at once but hopefully I'll get it down.

Also I don't think this is unplayable at all. Maybe at full tempo it's worse though, Idunno.

Can i use this tabs in a video?

I'll be covering some video game music on my youtube channel, and i really liked your arrengement, can i use it and credit you? ty!

sure thing ;)

sure thing ;)

Here's a video of me playing my arrangement based on this!

http://www.youtube.com/watch?v=7uNbGns2etw

Ty! I have some other videos on my channel, check them out!