Ads

Zelda's Lullaby (Legend of Zelda: Ocarina of Time) Mandolin Tab

Submitted: Jun 01, 2009 by LoneCentrist (Last updated: Feb 04, 2010)

5
Average: 5 (3 votes)
Download | Listen
Game: Legend of Zelda: Ocarina of Time
Composer(s): Koji Kondo
Style: Transcription
Series: Legend of Zelda

AutoScroll: Slow | Medium | Fast
Zelda's Lullaby
Legend of Zelda: Ocarina of Time
Composed by Koji Kondo
Tabbed by Rob Van
6/1/09

E|--------------------------------5---3----------|
A|--2---5-0-----0-2---5-0---2---5-------5---3-2-0|
D|------------5----------------------------------|
G|-----------------------------------------------|

E|--------------------------------5---3-10|
A|--2---5-0-----0-2---5-0---2---5---------|
D|------------5---------------------------|
G|----------------------------------------|

E|--10---8-7-8-7-3-----8---7-5-7-5-0-----10---8-7-8-7-3--8--15|
A|------------------------------------------------------------|
D|------------------------------------------------------------|
G|------------------------------------------------------------|
Login or Register to remove this ad.

1 comment on Zelda's Lullaby

great job

5

spot on!