Ads

Saria's Song (Legend of Zelda: Ocarina of Time) Guitar Tab

Submitted: Dec 25, 2009 by igiari (Last updated: Feb 06, 2010)

5
Average: 5 (1 vote)
Download | Listen
Game: Legend of Zelda: Ocarina of Time
Composer(s): Koji Kondo
Style: Alternate picking, Transcription
Series: Legend of Zelda

This song is also called Lost Woods

AutoScroll: Slow | Medium | Fast
-------------------------------------------------------------------------------
			     Saria's Song - Ocarina of Time
-------------------------------------------------------------------------------
Tabbed by: Igiari
Tuning: Standard

Before you start learning this song, you might want to check this out first:

Duration Legend
---------------
W - whole
H - half
Q - quarter
E - 8th
S - 16th
T - 32nd
X - 64th
. - note dotted
|-n-|  - n-tuplets


I hope you enjoy!


     E  E  Q    E  E  Q       E  E  E  E   Q     E  E     E  E  H          Q
E|------5--7-------5--7----|-----5--7--12--10----7--8--|--7--3----------------|
B|---6----------6----------|--6------------------------|--------5----------3--|
G|-------------------------|---------------------------|----------------------|
D|-------------------------|---------------------------|----------------------|
A|-------------------------|---------------------------|----------------------|
E|-------------------------|---------------------------|----------------------|


    E  E  H               E  E  Q    E  E  Q       E  E  E  E   Q     E  E           
E|--0--3--0------------|-----5--7-------5--7----|-----5--7--12--10----7--8--|
B|---------------------|--6----------6----------|--6------------------------|
G|---------------------|------------------------|---------------------------|
D|---------------------|------------------------|---------------------------|
A|---------------------|------------------------|---------------------------|
E|---------------------|------------------------|---------------------------|


    E   E  H          E     E  E  H       E  E   Q    E  E  Q                         
E|--12--7--3----------7--|--3-----0----|-----0---1----3--5--7---|
B|-----------------------|-----3-------|--3---------------------|
G|-----------------------|-------------|------------------------|
D|-----------------------|-------------|------------------------|
A|-----------------------|-------------|------------------------|
E|-----------------------|-------------|------------------------|


    E  E  H       E  E  Q    E  E  Q      E   E   H                                   
E|--8--7--0----|--1--3--5----7--8--10--|--12--13--15--|
B|-------------|-----------------------|--------------|
G|-------------|-----------------------|--------------|
D|-------------|-----------------------|--------------|
A|-------------|-----------------------|--------------|
E|-------------|-----------------------|--------------|


    E  E  Q    E  E  E       E  E  H         E. E. E. E. E. E. E. E.                        
E|-----0--1----3--5--7----|--8--7--0------|--1--0--5--3--7--5--8--7--|
B|--3---------------------|---------------|--------------------------|
D|------------------------|---------------|--------------------------|
G|------------------------|---------------|--------------------------|
A|------------------------|---------------|--------------------------|
E|------------------------|---------------|--------------------------|


    E.  E. E.  E.  E.  S. E.S. W     Q                                  
E|--10--8--12--10--13--12-7-8--5--|---7---|
B|--------------------------------|-------|
D|--------------------------------|-------|
G|--------------------------------|-------|
A|--------------------------------|-------|
E|--------------------------------|-------|

Please comment and rate and If you need to PM me, go ahead!

===============================================================================
Login or Register to remove this ad.