Ads

Market (Legend of Zelda: Ocarina of Time) Mandolin Tab

Submitted: Jun 11, 2010 by LoneCentrist

5
Average: 5 (1 vote)
Download | Listen
Game: Legend of Zelda: Ocarina of Time
Composer(s): Koji Kondo
Style: Transcription
Series: Legend of Zelda

AutoScroll: Slow | Medium | Fast
Market
Legend of Zelda: Ocarina of Time
Composed by Koji Kondo
Tabbed by Rob Van
6/11/10

E|-----------------0-2-3-----------------------------|
A|-5-5-5-3-2-3-5-5-------5-5-5-5-3-2-3-5-3-2-3-2-0---|
D|-------------------------------------------------5-|
G|---------------------------------------------------|

E|-----------------0-2-3-----------------------------|
A|-5-5-5-3-2-3-5-5-------5-5-5-5-3-2-3-5-3-2-3-2-0---|
D|-------------------------------------------------5-|
G|---------------------------------------------------|

E|-----------------0-2-3-----------------------------|
A|-5-5-5-3-2-3-5-5-------5-5-5-5-3-2-3-5-3-2-3-2-0---|
D|-------------------------------------------------5-|
G|---------------------------------------------------|

E|-----------------0-2-3-----------------------------|
A|-5-5-5-3-2-3-5-5-------5-5-5-5-3-2-3-5-3-2-3-2-0---|
D|-------------------------------------------------5-|
G|---------------------------------------------------|

E|---------------------------------------------------------------------|
A|-0-0-0---0-2--0---0-2-3-2-0---2-0-----0-0-0---0-2--0---0-2-3-5-3-2-0-|
D|-------5--------------------5---------------5------------------------|
G|---------------------------------------------------------------------|

E|---------------------------------------------------------------|
A|-0-0-0---0-2--0---0---3-2-0---2-0-----0-0-0---0-2--0---0-2-3-5-|
D|-------5--------------------5---------------5------------------|
G|---------------------------------------------------------------|
Login or Register to remove this ad.