Ads

Epona's Song (Legend of Zelda: Ocarina of Time) Mandolin Tab

Submitted: Jun 02, 2009 by LoneCentrist (Last updated: Feb 04, 2010)

5
Average: 5 (1 vote)
Download | Listen
Game: Legend of Zelda: Ocarina of Time
Composer(s): Koji Kondo
Style: Transcription
Series: Legend of Zelda

AutoScroll: Slow | Medium | Fast
Epona's Song
Legend of Zelda: Ocarina of Time
Composed by Koji Kondo
Tabbed by Rob Van
6/1/09

E|-------------------------------------------|
A|--5--2--0------5--2--0------5--2--0--2--0--|
D|-------------------------------------------|
G|-------------------------------------------|

E|-------------------------------------------|
A|-----------4--5--2------5----5--4--2--0----|
D|--4--3--4----------------------------------|
G|-------------------------------------------|


E|-------------------------------------------|
A|--5--2--0------5--2--0------5--2--0--2--0--|
D|-------------------------------------------|
G|-------------------------------------------|

E|-------------------------------------------|
A|-----------2--4--5------5------7--5--------|
D|--4--3--4----------------------------------|
G|-------------------------------------------|
Login or Register to remove this ad.