Ads

Song of Healing (Legend of Zelda: Majora's Mask) Mandolin Tab

Submitted: Jun 03, 2009 by LoneCentrist (Last updated: Feb 04, 2010)

5
Average: 5 (1 vote)
Download | Listen
Game: Legend of Zelda: Majora's Mask
Composer(s): Koji Kondo, Toru Minegishi
Style: Transcription
Series: Legend of Zelda

AutoScroll: Slow | Medium | Fast
Song of Healing
Legend of Zelda: Majora's Mask
Composed by Koji Kondo
Tabbed by Rob Van
6/2/09

E|---------------------------|
A|-2-0-----2-0-----2-0-------|
D|-----3-------3-------2-0-2-|
G|---------------------------|

E|---------------------------|
A|-2-0-----2-0-----2-0-------|
D|-----3-------3-------2-0-2-|
G|---------------------------|

E|---------------------------|
A|---------------------------|
D|-3-------3-------3-2-------|
G|---5-4-----5-4-------4-2-4-|

E|---------------------------|
A|---------------------2-----|
D|-3-------3-------3-2---5---|
G|---5-4-----5-4-------------|

E|---------------------------|
A|-0-0-0-5-5-5-------3-------|
D|-------------5-5-5---5-----|
G|---------------------------|

E|---------------------------|
A|-------1-1-1-----0---------|
D|-3-3-3-------2-0---2-------|
G|---------------------------|

E|---------------------------|
A|-0-0-0-5-5-5-------3-------|
D|-------------5-5-5---5-----|
G|---------------------------|

E|---------------------0-----|
A|-----0--1-3-5----2-5-------|
D|-3-5-----------5-----------|
G|---------------------------|
Login or Register to remove this ad.