Ads

Mysterious Woods (Legend of Zelda: Link's Awakening) Bass Tab

Submitted: Jan 24, 2010 by auriplane

5
Average: 5 (2 votes)
Download | Listen
Game: Legend of Zelda: Link's Awakening
Composer(s): Kazumi Totaka, Minako Hamano, Kozue Ishikawa
Style: Transcription
Series: Legend of Zelda

AutoScroll: Slow | Medium | Fast
            Link's Awakening - Mysterious Woods BASS TAB
                        Composed by Koji Kondo

                Tabbed by Auriplane ([email protected])


        Intro


G |--------------------------------|--------------------------------|
D |--------3-4---5-----------------|------3---4---5-----------------|
A |----5---------------------------|----5---------------------------|
E |3---------------------------1-2-|3---------------------------1-2-|


        Repeating part:


G |--------------------------------|--------------------------------|
D |--------3-4---5-----------------|------3---4---5-----------------|
A |----5---------------------------|----5---------------------------|
E |3---------------------------1-2-|3---------------------------2-3-|


G |--------------------------------|--------------------------------|
D |--------4-5---6-----------------|------4---5---6-----------------|
A |----6---------------------------|----6---------------------------|
E |4---------------------------2-3-|4---------------------------1-2-|

Login or Register to remove this ad.