Dark World (Legend of Zelda: A Link to the Past) Ukulele Tab

Submitted: May 19, 2010 by Stamen47 (Last updated: May 19, 2010)

5
Average: 5 (7 votes)
Download | Listen
Game: Legend of Zelda: A Link to the Past
Composer(s): Koji Kondo
Style: Arrangement, Fingerstyle
Series: Legend of Zelda

AutoScroll: Slow | Medium | Fast
                                  Dark World  

Music by Koji Kondo
Tab by Stamen47                                  

     E  E  E  S S E  Q    E       E  E  E  S S E  Q    E   
A||--------------------------||------1--1--1-1-1--3-------|
E||-----3--3--3-3-3--5-------||*--------3------3--5-------|
C||--0-----3------3--5----0--||*--0--------------------0--|
G||--------------------------||---------------------------|


  E  E  E  S S E  Q    E     E  E  E  S S E  Q    E   
--------------------------|-----1--1--1-1-1--3-------|
-----3--3--3-3-3--5-------|--------3------3--5-------|
--0-----3------3--5----0--|--0--------------------0--|
--------------------------|--------------------------|


  E  E  E  S S E   E  E  E     S S E  E  S S E  E  E  S S  
-------------------------3--|--0-1-0--L-------------------|
----------------------------|--1------1--1-1-1--1--1------|
-----3--3--3-3-3---0--------|-------------------------7-5-|
--0------------L------0-----|-----------------------------|


  E  E  E  S S E  E  E  E     S S E  E  S S E  E  E  S S  
-----6---------------------|--1----------------------3-1-|
-----------4-4-4--4--4-----|---------1--1-1-1--1--1------|
--7-----0---------------5--|--2-3-2--L-------------------|
-----5---------------------|-----------------------------|


  E  E  E  S S E  Q    S  S    E  E  E  S S E  Q    E   
--3----------------------10-|--5-----------------------|
-----3--3--3-3-3--5----8----|-----6--6--6-6-6--8-------|
--0-----3------3--5---------|--0-----7------7--9----0--|
----------------------------|--------------------------|


  E  E  E  S S E   E  E  E     S S E  E  S S E  E  E  S S  
-------------------------3--|--0-1-0--L-------------------|
----------------------------|--1------1--1-1-1--1--1------|
-----3--3--3-3-3---0--------|-------------------------7-5-|
--0------------L------0-----|-----------------------------|


  E  E  E  S S E  E  E  E     S S E  E  S S E  E  E  S S  
-----6---------------------|--1----------------------3-1-|
-----------4-4-4--4--4-----|---------1--1-1-1--1--1------|
--7-----0---------------5--|--2-3-2--L-------------------|
-----5---------------------|-----------------------------|


  E  E  E  S S E  E  S S S S    E  E  E  S S E  Q    S S  
--3------------------8-6-5---|--5------------------------|
-----3--3--3-3-3--5--------8-|-----6--6--6-6-6--8----3-5-|
--0-----3------3--5----------|--0-----7------7--9--------|
-----------------------------|---------------------------|


  E  E  E  S S E  E  E  E     S S E  E  S S E  E  E  S S  
------------------------1--|--0--------------------------|
--6------------------------|------1--L-----------------1-|
--3-----3--3-3-3--3--3-----|---------0--0-0-0--0--0--3---|
-----0--0------------0-----|----0------------------------|


  E  E  E  S S E  E  E  E     S S E  E  S S E  E  E  S S  
-----3--3--3-3-3--3--6-----|---------5--5-5-5--1---------|
-----4--4--4-4-4--4--4-----|-------------------1--1--3-5-|
-----3--3--3-3-3--3--0-----|--5-3-2--L------------2------|
--0---------------------0--|---------3------3------------|


                                                  |--3--|   
  E  E  E  S S E  E  E  E     S S E  E  S S E  E  E  E  E   
------------------------1--|--0-1-3--L---------------------|
--6------------------------|--1------1--1-1-1--1--1--1--1--|
--3-----3--3-3-3--3--3-----|-------------------------------|
-----0--0------------0-----|---------2------2-----2--2--2--|


                                                  |--3--|   
  E  E  E  S S E  E  E  E     S S E  E  S S E  E  E  E  E   
--1---------------------1--|--0---0--L---------------------|
--0--0--0--0-0-0--0--0-----|--2------2--2-2-2--2--2--2--2--|
---------------------------|--2------2--2-2-2--2--2--2--2--|
--0------------------0-----|----0--------------------------|


                     |--3--|                            |--3--|   
  E  E  E  S S E  E  E  E  E     E   E   E   S  S E  E  E  E  E   
-----5--5--5-5-7--7-----------|------8---8---8--8-7--7-----------|
--3---------------------------|-----10--10--10-10-8--8-----------|
--2---------------------------|----------------------------------|
-----3--3------5--5--0--0--0--|--0----------------------0--0--0--|


                     |--3--|                        |--3--|   
  S S S S E  Q    E  E  E  E     S S S S E  Q    E  E  E  E   
--3------------------3--------|--1---------------------------|
--4---1------4----4--4--4--4--|--3---1------3----3--3--3--3--|
--3----------3----3--3--3--3--|--2----------2----2--2--2--2--|
----0---0-L-------------------|----0---0-L-------------------|


                     |--3--|                        |--3--|   
  S S S S E  Q    E  E  E  E     S S S S E  Q    E  E  E  E   
--1----------4----------------|-------------3----------------|
----1--------2----2--2--2--2--|-------------1----------------|
------3-5-L-------1--1--1--1--|----3-2-3-L-------0--0--0--0--|
-------------3-------3--------|--1----------1----1--1--1--1--|


                     |--3--|                        |--3--|   
  S S S S E  Q    E  E  E  E     S S S S E  Q    E  E  E  E   
-------------1----------------|--3------------------3--------|
-------------0----0--0--0--0--|------1-----------------------|
----2-1-2-L-------------------|--3----------3----3--3--3--3--|
--0------------------0--------|----0---0-L-------------------|


                 |--3--|                    |--3--|   
  Q.     Q    E  E  E  E     Q.     Q    E  E  E  E   
--5-----------------------|--3------2----2--2--2--2--|
--2------2----2--2--2--2--|--3------3----3--3--3--3--|
--2------2----2--2--2--2--|--2------2----2--2--2--2--|
--2------2----2--2--2--2--|--0------0----0--0--0--0--|


  E  E  E  S S E  Q    E     
--3------------------------||
-----3--3--3-3-3--5-------*||
--0-----3------3--5----0--*||
---------------------------||




Duration Legend
---------------
W - whole
H - half
Q - quarter
E - 8th
S - 16th
. - note dotted
|-n-|  - n-tuplets


Tablature Legend
----------------
L - tied note
Login or Register to remove this ad.

4 comments on Dark World

Excellent arrangement. You

5

Excellent arrangement. You really need to post yourself performing some of these uke arrangements of yours.

Really good, 5 Stars :)

5

Really good, 5 Stars :)

Thanks guys. I just edited

Thanks guys. I just edited this a bit to help technically and musically.

Great arrangement, little correction.

5

Listening to the midi, I think bar #7 should actually be:

  E  E  E  S S E  E  E  E
-----6---------------------| 
-----------3-3-3--3--3-----|
--7-----0---------------5--|
-----5---------------------|

Great tab, though! It's given me a reason to bust out the ol' uke. :)