Ads

Overworld (Legend of Zelda: Adventure of Link) Guitar Tab

Submitted: Aug 28, 2009 by hslesperance (Last updated: Dec 19, 2012)

4.25
Average: 4.3 (8 votes)
Download | Listen
Game: Legend of Zelda: Adventure of Link
Composer(s): Akito Nakatsuka
Style: Transcription
Series: Legend of Zelda

AutoScroll: Slow | Medium | Fast
Overworld
The Legend of Zelda: Adventure of Link
Composed by Akito Nakatsuka
Tabbed by hslesperance
8/26/09

Standard Tuning


e-------------------------------------------------------------
B---6------------6-6-6-6-6----6--------6-6-6-6-6----6---------
G---------------------------8---------------------8-----------
D-------------------------------------------------------------
A-------------------------------------------------------------
E-------------------------------------------------------------

e--------------------------------------5------------5-5-6-8---
B---6-6-6-6-6-------------------------------------------------
G--------------5-5-5--5-5-5--5-5-5--5-------------------------
D-------------------------------------------------------------
A-------------------------------------------------------------
E-------------------------------------------------------------

e---11-----10-----8----------------------------13-13-13-------
B-----------------------11-----10--8-10-----------------13----
G-------10-----10----10-----10--------------------------------
D-------------------------------------------------------------
A-------------------------------------------------------------
E-------------------------------------------------------------

e---13-13-13-------13-13-13------------------------8-11-----10
B------------13-------------10------------10-10-11------------
G--------------------------------------------------------10---
D-------------------------------------------------------------
A-------------------------------------------------------------
E-------------------------------------------------------------

e------8----------------------------13-13-13-------13-13-13---
B------------11-----10--8-10-----------------13-------------13
G---10----10-----10-------------------------------------------
D-------------------------------------------------------------
A-------------------------------------------------------------
E-------------------------------------------------------------

e---13-13-13-------------------------18----17----15-----------
B---------------------------------15-------------------18-----
G------------12------------14-15------------------------------
D-------------------------------------------------------------
A-------------------------------------------------------------
E-------------------------------------------------------------

e-------------------------------------------------------------
B---16--16-15-----------------15-15--15-----------------------
G--------------------15-15-17-----------17--------------------
D-------------------------------------------------15----17----
A-------------------------------------------------------------
E-------------------------------------------------------------

e-------------18----17----15----------------------------------
B----------15-------------------18----17-15-17----------------
G---14-15--------------------------------------17-------------
D--------------------------------------------------14-14-14-14
A-------------------------------------------------------------
E-------------------------------------------------------------

e-------------------------------------------------------------
B-------------------------------------------------------------
G----------------------------------------------15---15--15-14-
D---14----14---------------------15---------------------------
A------17----15------15-15-15-15------------------------------
E-------------------------------------------------------------

e-------------------------------------------------------------
B-------------------------------------------------15-18-15----
G-----------------15---15--15-14---------------15----------15-
D---15--------------------------------------17----------------
A-------------------------------------------------------------
E-------------------------------------------------------------

e---------------------15-17-15----15--------------------------
B---------15-18-15-------------18----18-17-18-17-15-17-15-----
G------15----------15-----------------------------------------
D---17----------------------------------------------------17--
A-------------------------------------------------------------
E-------------------------------------------------------------

e-------------------------------------------------------------
B------15-18-15----------15-18-15----17--18-15--17-----15-----
G---15----------15----15----------15---------------17-----15--
D------------------17-----------------------------------------
A-------------------------------------------------------------
E-------------------------------------------------------------

e-------------------------------------------------------------
B-------------------------------------------------------------
G---17-14-----------------------------------------------------
D-------------------------------------------------------------
A-------------------------------------------------------------
E-------------------------------------------------------------
Login or Register to remove this ad.

9 comments on Overworld

..

5

awesome :)

Awesome

5

Trying to learn this, but it's so long when you just start to learn xD
Good job man(Y)

this sucks

1

it's extremely inaccurate.

Maybe your guitar's out of

Maybe your guitar's out of tune or something?

Waw, you'r 1st post ever on

Waw, you'r 1st post ever on here is a rage post, congratulation !

And welcome to Gametabs, you noob.

Alternate way to play the

5

Alternate way to play the arpeggio:

e |------------------------------------|15h17p15----------------------------|
B |------15h18p15----------15h18p15----|---------18h20p18-17h18p17----------|
G |------------------------------------|---------------------------19h21p19-|
D |17h20----------20p17h20---------h20-|------------------------------------|
A |------------------------------------|------------------------------------|
E |------------------------------------|------------------------------------|


e |------------------------------------|------------------------------------|
B |------15h18p15----------15h18p15----|17----18-------17-------------------|
G |------------------------------------|---------19-------17----19-------17-|
D |17h20----------20p17h20---------h20-|---------------------------20-------|19
A |------------------------------------|------------------------------------|
E |------------------------------------|------------------------------------|

I have to disagree,

I have to disagree, Chrisdude. It's only a little bit inaccurate, and that's mostly just a few parts where there's only one note when there should be 2 quick notes.

There's this part:

e-------------18----17----15----------------------------------
B----------15-------------------18----17-15-17----------------
G---14-15--------------------------------------17-------------
D--------------------------------------------------------14-14
A-------------------------------------------------------------
E-------------------------------------------------------------

But I think it's supposed to be this:

e-------------18----17----15----------------------------------
B----------15-------------------18----17-15-17----------------
G---14-15--------------------------------------17-------------
D--------------------------------------------------------17-17-17-17
A-------------------------------------------------------------
E-------------------------------------------------------------

And here's my alternate way to play the arpeggio in case you all think Auriplane is a wacky nut:

e |------10h13p10----------10h13p10----|15h17p15-13h15p13-12h13p12-10h12p10-|
B |---11----------11----11----------11-|------------------------------------|
G |12----------------12----------------|------------------------------------|
D |------------------------------------|------------------------------------|
A |------------------------------------|------------------------------------|
E |------------------------------------|------------------------------------|

String skipping is great.

String skipping is great. You should do it. Do it all the time!

Fixed it juja, sometimes it's

3

Fixed it juja, sometimes it's hard to hear the same note twice in a row on 8 bit songs.