Ads

Nostalgic Song (Legend of Mana) Guitar Tab

Submitted: Dec 04, 2020 by H.F. (Last updated: Dec 11, 2020)

0
Download | Listen
Game: Legend of Mana
Composer(s): Yoko Shimomura
Style: Arrangement, Fingerstyle, Natural harmonics
Series: Mana

AutoScroll: Slow | Medium | Fast
Title: Nostalgic Song
Album: Legend of Mana
Music: Yoko Shimomura
Tabber: H.F.

Tempo = 96


E ||-0-----------7-------|--5--------7--9-------|--7--------------0----|
B ||---------------------|----------------------|--------------0-------|
G ||o---------0----------|----------------------|-----------0----------|
D ||o------2-------------|--------7-------------|----------------------|
A ||----2----------------|--0--7----------------|--------7-------------|
E ||-0-------------------|----------------------|--0--7----------------|


--3--0----------------|--0-----7-----7-------|--5--------7--9-------|
--------0-------------|----------------------|----------------------|
-----------0----------|-----------0----------|----------------------|
--------------2-------|----------------------|--------7-------------|
-----------------2----|----------------------|--0--7----------------|
----------------------|--0--7----------------|----------------------|


--11-9--7--------7----|--11-7--------7-------|--12-------------8----|
--------------7-------|--------7-------------|--------------8-------|
-----------8----------|-----------8----------|-----------9----------|
--------9-------------|----------------------|--------10------------|
----------------------|-----------------9----|-----10---------------|
--7-------------------|----------------------|--8-------------------|


--10-------------10---|--7--------9----------|--7--------------7----|
-----------7--10------|--------------10------|--------------7-------|
--------7-------------|-----7--------9-------|-----------8----------|
--0--7----------------|--------7-------------|--------9-------------|
----------------------|--10------------------|-----9----------------|
----------------------|----------------------|--7-------------------|


--0-----7-----7-------|--5-------------------|--0--------------0----|
----------------------|-----------8--7-------|--------------0-------|
--------0-------------|--------7-------------|-----------0----------|
----------------------|-----7----------------|--------2-------------|
-----7----------------|--5-------------------|-----2----------------|
--8-------------------|----------------------|--0-------------------|


--3--0----------------|--3-----7----|--5--------7--9-------|--7----------|
--------0-------------|--5----------|-----------8--10------|--8----------|
-----------0----------|-----4-------|--6-------------------|-----0-------|
--------------2-------|-------------|--------7-------------|--9----------|
-----------------2----|-------------|--0-------------------|-------------|
----------------------|--0----------|----------------------|--0-----2----|


-------------|--3--7--7----|--5--------7--9-------|--11-9--7-------------|
--0----------|--5----------|--5--------8--10------|--7-----0-------------|
-------------|--4----------|--6-------------------|----------------------|
-----2-------|-------------|--------7-------------|----------------------|
-------------|-------------|--0-------------------|--------------6--7----|
--3-----0----|--0----------|----------------------|--7-------------------|


--------7----|--12---------|--10---------|--7--------9----------|--7----------|
-------------|-----8-------|-----10------|--8-----10----10------|--7-----0----|
--------8----|-----9-------|-----11------|--7-----9-------------|--8----------|
--------9----|-----10------|--0-----0----|--5-----7-------------|-------------|
--9----------|-------------|-------------|----------------------|-----9-------|
--------7----|--8-----8----|-------------|----------------------|--7----------|


--0--7--7----|--5--------3--2-------|--0----|-------|--0--7--7----|
-------------|--3-------------------|--0----|-------|-------------|
--5----------|--2-------------------|--0----|-------|--0----------|
--5----------|--0-------------------|-------|-------|-------------|
--3----------|----------------------|-------|-------|--3----------|
-------------|----------------------|--0----|-------|-------------|


--5--------3--2-------|--0--------0----------|--12------------------|
----------------------|--------0--------12---|-----12----0--1--3----|
--2-------------------|-----0--------12------|--------12------------|
--0-------------------|--2-------------------|----------------------|
----------------------|----------------------|----------------------|
----------------------|----------------------|--------------3-------|


--0-----7----|--5--------3----------|-----0--7----|--5--------3----------|
-------------|--------5-----6-------|-------------|--------5-----6-------|
-----0-------|--------5-------------|-----0-------|--------5-------------|
-------------|--3-------------------|-------------|--3-------------------|
--3----------|----------------------|--3----------|----------------------|
-------------|----------------------|-------------|----------------------|


-----0--7----|--------10-8--7-------|--7----------|-------------|
-------------|-----10----------10---|-------------|-----1-------|
-----0-------|----------------------|--0--7-------|-----2-------|
-------------|----------------------|-------------|--3----------|
--3----------|--8-------------------|-------------|-------------|
-------------|----------------------|-------------|-------------|


--0-----------7-------|--5--------3----------|--------0-----7-------|
----------------------|--------6-----6-------|----------------------|
-----0--5-------------|-----5----------------|-----0--5-------------|
----------------------|--3-------------------|----------------------|
--3-------------------|----------------------|--3-------------------|
----------------------|----------------------|----------------------|


--5--------3----------|--------3-----7-------|--0-----10-8--7-------|--7----|
--------6-----6-------|--------5-------------|-----10----------10---|--0----|
-----5----------------|-----0--5-------------|----------------------|--8----|
--3-------------------|----------------------|----------------------|-------|
----------------------|--3-------------------|--8-------------------|--6----|
----------------------|----------------------|----------------------|-------|


------------|||
------------|||
-----------o|||
-----------o|||
--------2---|||
------------|||

Login or Register to remove this ad.