Barren Lands II (The Legend of Dragoon) Bass/Guitar Tab

Submitted: Jun 05, 2011 by hashel

5
Average: 5 (1 vote)
Download | Listen
Game: The Legend of Dragoon
Composer(s): Takeo Miratsu
Style: 2 or more instruments, Transcription

This song is also called Tiberoa Map Theme

AutoScroll: Slow | Medium | Fast
Rhythm

E ||-------5-------------------|--------3-----------10------|
B ||----5-----5L----------5----|-----3-----3-----10---------|
G ||o--------------------------|--0-----------7--------7----|
D ||o7-------------------------|----------------------------|
A ||---------------------------|----------------------------|
E ||---------------------------|----------------------------|


--------5-------------------|--------3--5-----5--8--10---|
-----5-----5L----------5----|-----3----------------------|
----------------------------|--0-----------7-------------|
--7-------------------------|----------------------------|
----------------------------|----------------------------|
----------------------------|----------------------------|


--------5-------------------|--------3-----------10------|
-----5-----5L----------5----|-----3-----3-----10---------|
----------------------------|--0-----------7--------7----|
--7-------------------------|----------------------------|
----------------------------|----------------------------|
----------------------------|----------------------------|


--------5-------------------|
-----5-----5L----------5----|
----------------------------|
--7-------------------------|
----------------------------|
----------------------------|


--------------3-----5-----10------------------------|
--------3--------------------10---------------------|
--0-------------------------------------------------|
--------------------------------12------------------|
--------------------------------------------12------|
--------------------------------------10------------|


--------5-------------------|--------3-----------10------|
-----5-----5L----------5----|-----3-----3-----10---------|
----------------------------|--0-----------7--------7----|
--7-------------------------|----------------------------|
----------------------------|----------------------------|
----------------------------|----------------------------|


--------5-------------------|--------3--5-----5--8--10---|
-----5-----5L----------5----|-----3----------------------|
----------------------------|--0-----------7-------------|
--7-------------------------|----------------------------|
----------------------------|----------------------------|
----------------------------|----------------------------|


--------5-------------------|--------3-----------10------|
-----5-----5L----------5----|-----3-----3-----10---------|
----------------------------|--0-----------7--------7----|
--7-------------------------|----------------------------|
----------------------------|----------------------------|
----------------------------|----------------------------|


--------5-------------------|
-----5-----5L----------5----|
----------------------------|
--7-------------------------|
----------------------------|
----------------------------|


--------------3-----5-----10------------------------|
--------3--------------------10---------------------|
--0-------------------------------------------------|
--------------------------------12------------------|
--------------------------------------------12------|
--------------------------------------10------------|


--------5--5----------------|--------3--3-----------5----|
-----7--7--7--------5--7----|-----3-----------5--3-------|
--4--------------4----------|--0-----------2-------------|
----------------------------|----------------------------|
----------------------------|----------------------------|
----------------------------|----------------------------|


-----2--5--5--------7--7----|--------3--3--------5--5----|
--0-----7--7-----------5----|-----3-----------5----------|
----------------------------|--0-----------2-------------|
----------------------------|----------------------------|
----------------------------|----------------------------|
----------------------------|----------------------------|


--------5--5----------------|--------3--3-----------5----|
-----7--7--7--------5--7----|-----3-----------5--3-------|
--4--------------4----------|--0-----------2-------------|
----------------------------|----------------------------|
----------------------------|----------------------------|
----------------------------|----------------------------|


-----2--5--5--------7--7----|--------3--3--------5--5---|||
--0-----7--7-----------5----|-----3-----------5---------|||
----------------------------|--0-----------2-----------o|||
----------------------------|--------------------------o|||
----------------------------|---------------------------|||
----------------------------|---------------------------|||

Melody

E ||------|-------|-------|-------|-----------12----------12---|
B ||------|-------|-------|-------|----------------------------|
G ||o-----|-------|-------|-------|--14------------------------|
D ||o-----|-------|-------|-------|----------------------------|
A ||------|-------|-------|-------|----------------------------|
E ||------|-------|-------|-------|----------------------------|


----------------------------|-------|-----------------12-15------|
--15-------13----12---------|--12---|--12-13-15----15------------|
-----------------------14---|-------|----------------------------|
----------------------------|-------|----------------------------|
----------------------------|-------|----------------------------|
----------------------------|-------|----------------------------|


----------------------------|--12------------------------|
-----------17L---------17---|-----------15----13----12---|
--14------------------------|----------------------------|
----------------------------|----------------------------|
----------------------------|----------------------------|
----------------------------|----------------------------|


----------------------------|----------------------------|
--13----15-12L---------12---|--13------------------------|
----------------------------|-----------14L---------14---|
----------------------------|----------------------------|
----------------------------|----------------------------|
----------------------------|----------------------------|


----------------------------|----------------------------|
-----------17L---------17---|--15-------13----12---------|
--14------------------------|-----------------------14---|
----------------------------|----------------------------|
----------------------------|----------------------------|
----------------------------|----------------------------|


----------------------------|--------17------------------|
--12-13-15------------------|--15-17---------------------|
----------------------------|----------------------------|
----------------------------|----------------------------|
----------------------------|----------------------------|
----------------------------|----------------------------|


-----------14L---------14---|----------------------------|
----------------------------|--15-------14L---------14---|
--16------------------------|----------------------------|
----------------------------|----------------------------|
----------------------------|----------------------------|
----------------------------|----------------------------|


-----------14L---------14---|--15-------17L---------17---|
----------------------------|----------------------------|
--16------------------------|----------------------------|
----------------------------|----------------------------|
----------------------------|----------------------------|
----------------------------|----------------------------|


-----------14L---------14---|----------------------------|
----------------------------|--15-------14L---------14---|
--16------------------------|----------------------------|
----------------------------|----------------------------|
----------------------------|----------------------------|
----------------------------|----------------------------|


-----------14L---------14---|--15--|||
----------------------------|------|||
--16------------------------|-----o|||
----------------------------|-----o|||
----------------------------|------|||
----------------------------|------|||

Bass Line

G ||------|--0--2----|-------|--0--2----|-------|--0--2----|-------|--0--2----|
D ||o3----|----------|--3----|----------|--3----|----------|--3----|----------|
A ||o-----|----------|-------|----------|-------|----------|-------|----------|
E ||------|----------|-------|----------|-------|----------|-------|----------|


-------|--0--2----|-------|--0--2----|-------|--0--2----|-------|--0--2----|
--3----|----------|--3----|----------|--3----|----------|--3----|----------|
-------|----------|-------|----------|-------|----------|-------|----------|
-------|----------|-------|----------|-------|----------|-------|----------|


--4----|--0--2----|--4----|--0--2----|--4----|--0--2----|--4----|--0--2---|||
-------|----------|-------|----------|-------|----------|-------|--------o|||
-------|----------|-------|----------|-------|----------|-------|--------o|||
-------|----------|-------|----------|-------|----------|-------|---------|||
Login or Register to remove this ad.