Ads

Ancient Story (The Legend of Dragoon) Bass/Guitar Tab

Submitted: May 14, 2011 by hashel (Last updated: Aug 25, 2011)

5
Average: 5 (2 votes)
Download | Listen
Game: The Legend of Dragoon
Composer(s): Takeo Miratsu
Style: 2 or more instruments, Transcription

Click here for a video example.

AutoScroll: Slow | Medium | Fast
Strings Rhythm

     T T T T T T T T T T T T T T T T T T T T T T T T T T T T T T T T  
E||------0-------0-----------------------0-------0-------------------|
B||----------3-----------0---1---3-----------3-----------0---1---3---|
G||--2---------------2---------------2---------------2---------------|
D||------------------------------------------------------------------|
A||------------------------------------------------------------------|
E||------------------------------------------------------------------|


  T T T T T T T T T T T T T T T T T T T T T T T T T T T T T T T T  
------0-------0-----------------------0-------0-------------------|
----------3-----------0---1---3-----------3-----------0---1---3---|
--2---------------2---------------2---------------2---------------|
------------------------------------------------------------------|
------------------------------------------------------------------|
------------------------------------------------------------------|


  T T T T T T T T T T T T T T T T T T T T T T T T T T T T T T T T  
------0-------0-----------------------0-------0-------------------|
----------3-----------0---1---3-----------3-----------0---1---3---|
--2---------------2---------------2---------------2---------------|
------------------------------------------------------------------|
------------------------------------------------------------------|
------------------------------------------------------------------|


  T T T T T T T T T T T T T T T T T T T T T T T T T T T T T T T T  
------0-------0-----------------------0-------0-------------------|
----------3-----------0---1---3-----------3-----------0---1---3---|
--2---------------2---------------2---------------2---------------|
------------------------------------------------------------------|
------------------------------------------------------------------|
------------------------------------------------------------------|


  T T T T T T T T T T T T T T T T T T T T T T T T T T T T T T T T  
------0-------0-----------------------0-------0-------------------|
----------3-----------0---1---3-----------3-----------0---1---3---|
--2---------------2---------------2---------------2---------------|
------------------------------------------------------------------|
------------------------------------------------------------------|
------------------------------------------------------------------|


  T T T T T T T T T T T T T T T T T T T T T T T T T T T T T T T T  
------0-------0-----------------------0-------0-------------------|
----------3-----------0---1---3-----------3-----------0---1---3---|
--2---------------2---------------2---------------2---------------|
------------------------------------------------------------------|
------------------------------------------------------------------|
------------------------------------------------------------------|


  T T T T T T T T T T T T T T T T T T T T T T T T T T T T T T T T  
------0-------0-----------------------0-------0-------------------|
----------3-----------0---1---3-----------3-----------0---1---3---|
--2---------------2---------------2---------------2---------------|
------------------------------------------------------------------|
------------------------------------------------------------------|
------------------------------------------------------------------|


  T T T T T T T T T T T T T T T T T T T T T T T T T T T T T T T T  
------0-------0-----------------------0-------0-------------------|
----------3-----------0---1---3-----------3-----------0---1---3---|
--2---------------2---------------2---------------2---------------|
------------------------------------------------------------------|
------------------------------------------------------------------|
------------------------------------------------------------------|


  T T T T T T T T T T T T T T T T T T T T T T T T T T T T T T T T  
------0-------0-----------------------0-------0-------------------|
----------3-----------0---1---3-----------3-----------0---1---3---|
--2---------------2---------------2---------------2---------------|
------------------------------------------------------------------|
------------------------------------------------------------------|
------------------------------------------------------------------|


  T T T T T T T T T T T T T T T T T T T T T T T T T T T T T T T T  
------0-------0-----------------------0-------0-------------------|
----------3-----------0---1---3-----------3-----------0---1---3---|
--2---------------2---------------2---------------2---------------|
------------------------------------------------------------------|
------------------------------------------------------------------|
------------------------------------------------------------------|


  T T T T T T T T T T T T T T T T T T T T T T T T T T T T T T T T  
------0-------0-----------------------0-------0-------------------|
----------3-----------0---1---3-----------3-----------0---1---3---|
--2---------------2---------------2---------------2---------------|
------------------------------------------------------------------|
------------------------------------------------------------------|
------------------------------------------------------------------|


  T T T T T T T T T T T T T T T T T T T T T T T T T T T T T T T T  
------0-------0-----------------------0-------0-------------------|
----------3-----------0---1---3-----------3-----------0---1---3---|
--2---------------2---------------2---------------2---------------|
------------------------------------------------------------------|
------------------------------------------------------------------|
------------------------------------------------------------------|


  T T T T T T T T T T T T T T T T T T T T T T T T T T T T T T T T  
------0-------0-----------------------0-------0-------------------|
----------3-----------0---1---3-----------3-----------0---1---3---|
--2---------------2---------------2---------------2---------------|
------------------------------------------------------------------|
------------------------------------------------------------------|
------------------------------------------------------------------|


  T T T T T T T T T T T T T T T T T T T T T T T T T T T T T T T T  
------0-------0-----------------------0-------0-------------------|
----------3-----------0---1---3-----------3-----------0---1---3---|
--2---------------2---------------2---------------2---------------|
------------------------------------------------------------------|
------------------------------------------------------------------|
------------------------------------------------------------------|


  T T T T T T T T T T T T T T T T T T T T T T T T T T T T T T T T  
------0-------0-----------------------0-------0-------------------|
----------3-----------0---1---3-----------3-----------0---1---3---|
--2---------------2---------------2---------------2---------------|
------------------------------------------------------------------|
------------------------------------------------------------------|
------------------------------------------------------------------|


  T T T T T T T T T T T T T T T T T T T T T T T T T T T T T T T T  
------0-------0-----------------------0-------0-------------------|
----------3-----------0---1---3-----------3-----------0---1---3---|
--2---------------2---------------2---------------2---------------|
------------------------------------------------------------------|
------------------------------------------------------------------|
------------------------------------------------------------------|


  T T T T T T T T T T T T T T T T T T T T T T T T T T T T T T T T  
------1---0---1---------------0-------1---0---1---------------0---|
----------------------1---3---------------------------1---3-------|
--3---------------3---------------3---------------3---------------|
------------------------------------------------------------------|
------------------------------------------------------------------|
------------------------------------------------------------------|


  T T T T T T T T T T T T T T T T T T T T T T T T T T T T T T T T  
------1---0---1---------------0-------1---0---1---------------0---|
----------------------1---3---------------------------1---3-------|
--3---------------3---------------3---------------3---------------|
------------------------------------------------------------------|
------------------------------------------------------------------|
------------------------------------------------------------------|


  T T T T T T T T T T T T T T T T T T T T T T T T T T T T T T T T  
------1---0---1---------------0-------1---0---1---------------0---|
----------------------1---3---------------------------1---3-------|
--3---------------3---------------3---------------3---------------|
------------------------------------------------------------------|
------------------------------------------------------------------|
------------------------------------------------------------------|


  T T T T T T T T T T T T T T T T T T T T T T T T T T T T T T T T  
------1---0---1---------------0-------1---0---1---------------0---|
----------------------1---3---------------------------1---3-------|
--3---------------3---------------3---------------3---------------|
------------------------------------------------------------------|
------------------------------------------------------------------|
------------------------------------------------------------------|


  T T T T T T T T T T T T T T T T T T T T T T T T T T T T T T T T  
------3---2---3-----------0---2-------3---2---3-----------0---2---|
--1---------------1---3-----------1---------------1---3-----------|
------------------------------------------------------------------|
------------------------------------------------------------------|
------------------------------------------------------------------|
------------------------------------------------------------------|


  T T T T T T T T T T T T T T T T T T T T T T T T T T T T T T T T  
------3---2---3-----------0---2-------3---2---3-----------0---2---|
--1---------------1---3-----------1---------------1---3-----------|
------------------------------------------------------------------|
------------------------------------------------------------------|
------------------------------------------------------------------|
------------------------------------------------------------------|


  T T T T T T T T T T T T T T T T T T T T T T T T T T T T T T T T  
------3---2---3-----------0---2-------3---2---3-----------0---2---|
--1---------------1---3-----------1---------------1---3-----------|
------------------------------------------------------------------|
------------------------------------------------------------------|
------------------------------------------------------------------|
------------------------------------------------------------------|


  T T T T T T T T T T T T T T  T T  T T  T T  T T  T T  T T  T T  T T  T T  
------3---2---3---5---7---8---10---12---14---15---17---19---20---22---24---|
--1------------------------------------------------------------------------|
---------------------------------------------------------------------------|
---------------------------------------------------------------------------|
---------------------------------------------------------------------------|
---------------------------------------------------------------------------|


  T T T T T T T T T T T T T T T T T T T T T T T T T T T T T T T T  
------0-------0-----------------------0-------0-------------------|
----------3-----------0---1---3-----------3-----------0---1---3---|
--2---------------2---------------2---------------2---------------|
------------------------------------------------------------------|
------------------------------------------------------------------|
------------------------------------------------------------------|


  T T T T T T T T T T T T T T T T T T T T T T T T T T T T T T T T  
------0-------0-----------------------0-------0-------------------|
----------3-----------0---1---3-----------3-----------0---1---3---|
--2---------------2---------------2---------------2---------------|
------------------------------------------------------------------|
------------------------------------------------------------------|
------------------------------------------------------------------|


  T T T T T T T T T T T T T T T T T T T T T T T T T T T T T T T T  
------0-------0-----------------------0-------0-------------------|
----------3-----------0---1---3-----------3-----------0---1---3---|
--2---------------2---------------2---------------2---------------|
------------------------------------------------------------------|
------------------------------------------------------------------|
------------------------------------------------------------------|


  T T T T T T T T T T T T T T T T T T T T T T T T T T T T T T T T  
------0-------0-----------------------0-------0-------------------|
----------3-----------0---1---3-----------3-----------0---1---3---|
--2---------------2---------------2---------------2---------------|
------------------------------------------------------------------|
------------------------------------------------------------------|
------------------------------------------------------------------|


  T T T T T T T T T T T T T T T T T T T T T T T T T T T T T T T T  
------0-------0-----------------------0-------0-------------------|
----------3-----------0---1---3-----------3-----------0---1---3---|
--2---------------2---------------2---------------2---------------|
------------------------------------------------------------------|
------------------------------------------------------------------|
------------------------------------------------------------------|


  T T T T T T T T T T T T T T T T T T T T T T T T T T T T T T T T  
------0-------0-----------------------0-------0-------------------|
----------3-----------0---1---3-----------3-----------0---1---3---|
--2---------------2---------------2---------------2---------------|
------------------------------------------------------------------|
------------------------------------------------------------------|
------------------------------------------------------------------|


  T T T T T T T T T T T T T T T T T T T T T T T T T T T T T T T T  
------0-------0-----------------------0-------0-------------------|
----------3-----------0---1---3-----------3-----------0---1---3---|
--2---------------2---------------2---------------2---------------|
------------------------------------------------------------------|
------------------------------------------------------------------|
------------------------------------------------------------------|


  T T T T T T T T T T T T T T T T T T T T T T T T T T T T T T T T   
------0-------0-----------------------0-------0-------------------||
----------3-----------0---1---3-----------3-----------0---1---3---||
--2---------------2---------------2---------------2---------------||
------------------------------------------------------------------||
------------------------------------------------------------------||
------------------------------------------------------------------||




French Horn

     W                   W                   W                 
E||-------------------|-------------------|-------------------|
B||-------------------|-------------------|-------------------|
G||-------------------|-------------------|-------------------|
D||-------------------|-------------------|-------------------|
A||-------------------|-------------------|-------------------|
E||-------------------|-------------------|-------------------|


  W                   W                   W                   W                 
-------------------|-------------------|-------------------|-------------------|
-------------------|-------------------|-------------------|-------------------|
-------------------|-------------------|-------------------|-------------------|
-------------------|-------------------|-------------------|-------------------|
-------------------|-------------------|-------------------|-------------------|
-------------------|-------------------|-------------------|-------------------|


  W                   E  S Q    S H           Q    H.            
-------------------|-----------------------|--------------------|
-------------------|-----------------------|--------------------|
-------------------|-------5----L-9--------|--L-----------------|
-------------------|--7--7-----------------|--------------------|
-------------------|-----------------------|--------------------|
-------------------|-----------------------|--------------------|


  E  S E.  S S H           Q    H        Q       S  S  S E.   S S  H         
------------------------|---------------------|-----------------------------|
------------------------|---------------------|-------------------10--------|
-------4-----4-7--------|--L------------------|----------9------9-----------|
--5--5-----5------------|---------------------|-------10-----10-------------|
------------------------|---------------------|----12-----------------------|
------------------------|---------------------|-----------------------------|


   Q    H        Q       S  S  S E   S S  E  S  S E   S S  S  
----------------------|---------------------------8-----8-12-|
---L------------------|------------------10----10----10------|
----------------------|----------9-----9-----9---------------|
----------------------|-------10----10-----------------------|
----------------------|----12--------------------------------|
----------------------|--------------------------------------|


   S  S  S  S  H.              W                   W                 
---L----12-13-15------------|-------------------|-------------------|
-----13---------------------|-------------------|-------------------|
----------------------------|-------------------|-------------------|
----------------------------|-------------------|-------------------|
----------------------------|-------------------|-------------------|
----------------------------|-------------------|-------------------|


  W                   W                   W                   W                 
-------------------|-------------------|-------------------|-------------------|
-------------------|-------------------|-------------------|-------------------|
-------------------|-------------------|-------------------|-------------------|
-------------------|-------------------|-------------------|-------------------|
-------------------|-------------------|-------------------|-------------------|
-------------------|-------------------|-------------------|-------------------|


  W                   W                   E  S Q    S H         
-------------------|-------------------|-----------------------|
-------------------|-------------------|-----------------------|
-------------------|-------------------|-------5----L-9--------|
-------------------|-------------------|--7--7-----------------|
-------------------|-------------------|-----------------------|
-------------------|-------------------|-----------------------|


  Q    H.              E  S E.  S S H           Q    H        Q     
--------------------|------------------------|---------------------|
--------------------|------------------------|---------------------|
--L-----------------|-------4-----4-7--------|--L------------------|
--------------------|--5--5-----5------------|---------------------|
--------------------|------------------------|---------------------|
--------------------|------------------------|---------------------|


  S  S  S E.   S S  H            Q    H        Q     
-----------------------------|----------------------|
-------------------10--------|---L------------------|
----------9------9-----------|----------------------|
-------10-----10-------------|----------------------|
----12-----------------------|----------------------|
-----------------------------|----------------------|


  S  S  S E   S S  E  S  S E   S S  S     S  S  S  S  H.             
---------------------------8-----8-12-|---L----12-13-15------------||
------------------10----10----10------|-----13---------------------||
----------9-----9-----9---------------|----------------------------||
-------10----10-----------------------|----------------------------||
----12--------------------------------|----------------------------||
--------------------------------------|----------------------------||




Strings Melody

     W                   W                   W                 
E||-------------------|-------------------|-------------------|
B||-------------------|-------------------|-------------------|
G||-------------------|-------------------|-------------------|
D||-------------------|-------------------|-------------------|
A||-------------------|-------------------|-------------------|
E||-------------------|-------------------|-------------------|


  W                   W                   W                   W                 
-------------------|-------------------|-------------------|-------------------|
-------------------|-------------------|-------------------|-------------------|
-------------------|-------------------|-------------------|-------------------|
-------------------|-------------------|-------------------|-------------------|
-------------------|-------------------|-------------------|-------------------|
-------------------|-------------------|-------------------|-------------------|


  W                   W                   Q     Q     Q     Q     
-------------------|-------------------|-------------------------|
-------------------|-------------------|-------13----12----10----|
-------------------|-------------------|-------------------------|
-------------------|-------------------|-------------------------|
-------------------|-------------------|-------------------------|
-------------------|-------------------|-------------------------|


  W                   Q     Q     Q     Q       W                 
-------------------|-------------------------|-------------------|
-------------------|-------12----10----12----|-------------------|
-------------------|-------------------------|-------------------|
-------------------|-------------------------|-------------------|
-------------------|-------------------------|-------------------|
-------------------|-------------------------|-------------------|


  Q     Q     Q     Q        W                    W                 
-------------------12----|--------------------|--------------------|
-------13----12----------|--10----------------|--12----------------|
-------------------------|--------------------|--------------------|
-------------------------|--------------------|--------------------|
-------------------------|--------------------|--------------------|
-------------------------|--------------------|--------------------|


   Q     E   Q     Q     E      W                    Q     E   Q     Q     E   
--------18--17----13--------|--------------------|--------18--17--------------|
--15--------------------13--|--15----------------|--15--------------18--------|
----------------------------|--------------------|------------------------17--|
----------------------------|--------------------|----------------------------|
----------------------------|--------------------|----------------------------|
----------------------------|--------------------|----------------------------|


   Q     Q     Q     Q        Q     E   Q     Q     E      W                 
--------------------15----|--------20--19--------------|--------------------|
--------17----18----------|------------------20--------|--17----------------|
--19----------------------|--17--------------------19--|--------------------|
--------------------------|----------------------------|--------------------|
--------------------------|----------------------------|--------------------|
--------------------------|----------------------------|--------------------|


   Q     E   Q     Q     E      Q     Q     Q     Q       W                 
--------20--19--------------|--------------------17----|-------------------|
------------------20--------|--17----19----20----------|-------------------|
--17--------------------19--|--------------------------|-------------------|
----------------------------|--------------------------|-------------------|
----------------------------|--------------------------|-------------------|
----------------------------|--------------------------|-------------------|


  Q     Q     Q     Q       W                   Q     Q     Q     Q     
-------------------------|-------------------|-------------------10----|
-------13----12----10----|-------------------|-------12----13----------|
-------------------------|-------------------|-------------------------|
-------------------------|-------------------|-------------------------|
-------------------------|-------------------|-------------------------|
-------------------------|-------------------|-------------------------|


  W                   Q     Q     Q     Q        W                 
-------------------|-------------10----12----|--------------------|
-------------------|-------13----------------|--10----------------|
-------------------|-------------------------|--------------------|
-------------------|-------------------------|--------------------|
-------------------|-------------------------|--------------------|
-------------------|-------------------------|--------------------|


   W                  
--------------------||
--12----------------||
--------------------||
--------------------||
--------------------||
--------------------||




Bass Line

     W                   H        Q    E.  S    W                 
G||--2----------------|--L--------L----L---2-|--0----------------|
D||-------------------|----------------------|-------------------|
A||-------------------|----------------------|-------------------|
E||-------------------|----------------------|-------------------|


  W                   W                   H        Q    E.  S  
--L----------------|-------------------|----------------------|
-------------------|--4----------------|--L--------L----L---4-|
-------------------|-------------------|----------------------|
-------------------|-------------------|----------------------|


  W                   W                   W                 
-------------------|--0----------------|--2----------------|
--3----------------|-------------------|-------------------|
-------------------|-------------------|-------------------|
-------------------|-------------------|-------------------|


  H        Q    E.  S    W                   W                 
--L--------L----L---2-|--0----------------|--L----------------|
----------------------|-------------------|-------------------|
----------------------|-------------------|-------------------|
----------------------|-------------------|-------------------|


  W                   H        Q    E.  S    W                 
-------------------|----------------------|-------------------|
--4----------------|--L--------L----L---4-|--3----------------|
-------------------|----------------------|-------------------|
-------------------|----------------------|-------------------|


  W                   Q.     H        E     Q.     H        E   
--0----------------|--3------3--------L--|--3------3--------L--|
-------------------|---------------------|---------------------|
-------------------|---------------------|---------------------|
-------------------|---------------------|---------------------|


  Q.     H        E     Q.     H        E     Q.     H        E   
--3------3--------L--|--3------3--------L--|--5------5--------L--|
---------------------|---------------------|---------------------|
---------------------|---------------------|---------------------|
---------------------|---------------------|---------------------|


  Q.     H        E     Q.     H        E     Q.     H        E   
--5------5--------L--|--5------5--------L--|--5------5--------L--|
---------------------|---------------------|---------------------|
---------------------|---------------------|---------------------|
---------------------|---------------------|---------------------|


  W                   H        Q    E.  S    W                 
-------------------|----------------------|--0----------------|
--7----------------|--L--------L----L---7-|-------------------|
-------------------|----------------------|-------------------|
-------------------|----------------------|-------------------|


  W                   W                   H        Q    E.  S  
--L----------------|-------------------|----------------------|
-------------------|--4----------------|--L--------L----L---4-|
-------------------|-------------------|----------------------|
-------------------|-------------------|----------------------|


  W                   W                  
-------------------|--0----------------||
--3----------------|-------------------||
-------------------|-------------------||
-------------------|-------------------||




Duration Legend
---------------
W - whole
H - half
Q - quarter
E - 8th
S - 16th
T - 32nd
X - 64th
. - note dotted
|-n-|  - n-tuplets


Tablature Legend
----------------
L - tied note
x - dead note
g - grace note
(n) - ghost note
> - accentuded note
NH - natural harmonic
AH - artificial harmonic
TH - tapped harmonic
SH - semi harmonic
PH - pitch harmonic
h - hammer on
p - pull off
b - bend
br - bendRelease
pb - preBend
pbr - preBendRelease
brb - bendReleaseBend
\n/ - tremolo bar dip
\n - tremolo bar dive
-/n - tremolo bar Release up
/n\ - tremolo bar inverted dip
/n - tremolo bar return
-\n - tremolo bar Release down
S - shift slide
s - legato slide
/ -  slide into from below or out of upwards
\ -  slide into from above or out of downwards
~ - vibrato
W - wide vibrato
tr - trill
TP - tremolo picking
T - tapping
S - slap
P - pop
< - fade in
^ - brush up
v - brush down
Login or Register to remove this ad.

2 comments on Ancient Story

T T T T T T T T T T T T T T

  T T T T T T T T T T T T T T  T T  T T  T T  T T  T T  T T  T T  T T  T T  
------3---2---3---5---7---8---10---12---14---15---17---19---20---22---24---|
--1------------------------------------------------------------------------|
---------------------------------------------------------------------------|
---------------------------------------------------------------------------|
---------------------------------------------------------------------------|
---------------------------------------------------------------------------|

Really?

You should probably make your tab include the parts that you want to play / are actually playable, would be my suggestion. It doesn't look like you tried to play the "strings rhythm" part, so I'd leave that out of the text tab. (Unless you've been practicing your one-string scales a lot, or something.)

Also, I'd put the melody at the top. Even if you post multiple instruments, most people want to play the melody, it seems like.

yhea sorry i sometimes post

yhea sorry i sometimes post tabs that i didn't play because i'm out of time and becaus ei'm an inpatient :$