Ads

Main Theme (League of Legends) Guitar Tab

Submitted: Sep 11, 2012 by RobinLi

5
Average: 5 (6 votes)
Download | Listen
Game: League of Legends
Composer(s): Praeco
Style: Arrangement, Fingerstyle

AutoScroll: Slow | Medium | Fast
Name of song: Main Theme
Name of game: League of Legends
Composer of song: Praeco
Name of tabber: RobinLi
Date tab was made: September 11, 2012

Legend
L - tied note
x - dead note
h - hammer on/pull off
b - bend
s - slide
~ - vibrato
g - ghost note
> - accentuated note
t - trill
M - palm mute
. - staccato
P - popping (bass)
S - slapping (bass)
+ - tapping
W - wide vibrato
< - fade in
w - whammy bar
= - tremolo picking
v - brush up
^ - brush down
V - pick stroke up
n - pick stroke down

                                                                  
E |----------------------------|--0-------------|----------------|
B |--------0--------3----------|--------0-------|--------7-------|
G |----------------------------|-----0-----0----|-----0----------|
D |----------------------------|----------------|----------------|
A |----------------------------|----------------|--7-------------|
E |----------------------------|--0-------------|----------------|

                                                                    
--------7-------|----------------|--2-------------|----------------|
--8-------------|--------8-------|--------3-------|--------1-------|
-----9-----9----|-----9----------|-----2-----2----|-----2----------|
--10------------|--10------------|--0-------------|--0-------------|
----------------|----------------|----------------|----------------|
----------------|----------------|----------------|----------------|

                                                                    
----------------|--------0--3----|--5-------------|--------7-------|
--1-------------|----------------|--------6-------|----------------|
--------2-------|----------------|-----5-----5----|-----5----------|
-----2-----2----|-----2----------|--3-------------|--3-------------|
--0-------------|--0-------------|----------------|----------------|
----------------|----------------|----------------|----------------|

                                                                    
--8-------------|--------8-------|--10------------|----------------|
--------5-------|----------------|--------7-------|--0-------------|
-----5-----5----|-----5----------|-----7-----7----|-----2----------|
--7-------------|--7-------------|--9-------------|--------4--0----|
----------------|----------------|----------------|----------------|
----------------|----------------|----------------|----------------|

                                                ^                               
----------------------------|----------------|--0-------------|----------------|
----------------------------|--------0--3----|--0-----0-------|--------7-------|
----------------------------|--4-------------|--0--0-----0----|-----0-----0----|
--4-------------------------|--4-------------|--2-------------|----------------|
--2-----------2--2--2-------|--2-------------|--2-------------|--7-------------|
----------------------------|--2-------------|--0-------------|----------------|

  ^                                 ^                               
--------7-------|----------------|--2-------------|----------------|
--8-------------|--------8-------|--3-----3-------|--------1-------|
--9--9-----9----|-----9-----9----|--2--2-----2----|-----2-----2----|
--10------------|--10------------|--0-------------|--0-------------|
--7-------------|----------------|----------------|----------------|
----------------|----------------|----------------|----------------|

  ^                                 ^                               
----------------|--------0--3----|--5-------------|--------7-------|
--1-------------|----------------|--6-----6-------|----------------|
--2-----2-------|----------------|--5--5-----5----|-----5-----5----|
--2--2-----2----|-----2----------|--3-------------|--3-------------|
--0-------------|--0-------------|----------------|----------------|
----------------|----------------|----------------|----------------|

  ^                                 ^                                 ^        
--8-------------|--------8-------|--10------------|----------------|--0--0----|
--5-----5-------|-----------5----|--7-----7-------|--0-------------|--0--0----|
--5--5-----5----|-----5----------|--7--7-----7----|-----2----------|--0--0----|
--7-------------|--7-------------|--9-------------|--------0--4----|--2--2----|
----------------|----------------|----------------|----------------|----------|
----------------|----------------|----------------|----------------|----------|

  ^
--0----||
--0----||
--0----||
--2----||
--2----||
--0----||

Login or Register to remove this ad.

4 comments on Main Theme

neat

5

neat

Hey guys, please listen to

Hey guys, please listen to the mp3 to get the timing and style down; especially in the 2nd last measure where there's a 3-finger rasgueado (not shown on tab).

thank you

thank you very much, I have been searching for this tab a long time, but I can't understand what are you talking about????

ótima tab, obrigado por

ótima tab, obrigado por compartilha-la.

-

great tab, thanks for sharing it.