Ads

Carrying You (Laputa: Castle In The Sky) Guitar Tab

Submitted: Jan 24, 2018 by Emi

5
Average: 5 (2 votes)
Download | Listen
Game: Laputa: Castle In The Sky
Composer(s): Joe Hisaishi
Style: Arrangement, Fingerstyle, Natural harmonics

AutoScroll: Slow | Medium | Fast
Title: Castle In The Sky
Artist: Joe Hisaishi
Arranged for Guitar by Emilien Delcour
Tempo = 90


Legend
L - tied note
x - dead note
h - hammer on/pull off
s - slide
g - ghost note
t - trill
v - brush up
^ - brush down



Check the video here!
https://www.youtube.com/watch?v=xl-uSCW_hUY


                                                             
E |----------------------------|--------------------0-------|
B |-----------------------0----|--1--------0h-1-------------|
G |--------------------2-------|--------2--------------2----|
D |----------------------------|-----2----------------------|
A |----------------------------|--0--------------0----------|
E |----------------------------|----------------------------|

                               ^                          
----------------------------|----------------------------|
--0-------------------------|----------------------------|
-----2----------------------|--2-----------2-----5-------|
--------2-------------------|--3--------5--------5-------|
--3--------2--0-------------|--3-----3--------0--5--5----|
-----------------0--1--3----|--1--1----------------------|

                                                          
----------------------------|----------------------------|
----------------------------|----------------------------|
--0-------------------------|-----------5--4-----5-------|
--2-------------------------|--3--------7--5-------------|
--2--2--3--2----------------|--------------------7-------|
--------------3-----0--0----|--1-------------------------|

                                                          
----------------------------|----------------------------|
----------------------------|--------------------0-------|
-----------------5--5--5----|--4--------0--0-------------|
--2L----------2--7--7--7----|--5--------0--2-------------|
--2L----------2-------------|----------------------------|
--0L----------0-------------|----------------------------|

                                                          
----------------------------|--------------------0-------|
--0--------------------0----|--1--------0h-1-------------|
--0--------0--------2-------|--------2--------------2----|
--0-----0-----0-------------|-----2----------------------|
-----2----------------------|--0--------------0----------|
--3-------------------------|----------------------------|

                               ^                          
----------------------------|----------------------------|
--0-------------------------|----------------------------|
-----2----------------------|--2-----------2-----5-------|
--------2-------------------|--3--------5--------5-------|
--3--------2--0-------------|--3-----3--------0--5--0----|
-----------------0--1--3----|--1--1----------------------|

                                                          
----------------------------|----------------------------|
----------------------------|----------------------------|
--0-------------------------|--------5-----4-----5s-7----|
--2-------------------------|--3-----7-----5-----7s-9----|
--2--2--0--2----------------|----------------------------|
--------------3-----0-------|--1-------------------------|

                                                          
----------------------------|----------------------------|
----------------------------|----------------------------|
--7--9--5-----------5-------|--9--9--7--5--7-----4-------|
--9-----7--7-----7----------|--10-10-9--7--9-----5-------|
--------5-----8-------------|--------------10----7-------|
----------------------------|----------------------------|

                               ^                          
----------------------------|--0-----------0-----3-------|
--------------------1--3----|--1--------3----------------|
--2--------2----------------|--0-----0--------------0----|
--2-----2-----2-------------|--2--2----------------------|
--0--0----------------------|--3--------------3----------|
----------------------------|----------------------------|

                                                          
----------------------------|--------------------0-------|
--3--------1--0--------0----|--1--------0--1-------------|
-----0--------------2-------|--------2--------------0----|
--------0-------------------|-----2----------------------|
----------------------------|--0--------------0----------|
--3-------------------------|----------------------------|

                                                          
----------------------------|----------------------------|
--0--------3--0--------0----|--1-----0--1--3--3--1L------|
--------0-----------2-------|--0-----------4--4--2L------|
----------------------------|----------------------------|
-----2----------------------|-----------------3--0L------|
--0-------------------------|--1-----------3-------------|

                                          ^                          
----------------------|--1--0----------|--0-----------0-------------|
--1-------------------|--------3--1----|--0--------0--------0-------|
--2--0--0-------------|--2--0----------|--2-----2--------2-----2----|
-----0--2-------------|--------3-------|--2--2----------------------|
--0--0--2-------------|-----------0----|----------------------------|
--------------0-------|----------------|----------------------------|

                               ^     v     ^     v        
--------0-----0-----0-------|--5-----------3-------------|
-----0-----3--------5-------|--5-----5-----3-----3-------|
--1-----------------4-------|--5-----7-----4-----4-------|
----------------------------|--7-----5-----5-----7-------|
----------------------------|--7-----7-----5-------------|
--------------------0-------|--5--5-----5--3--3-----3----|

  ^                                           
--0-------------------|----------------------|
--1-----3--1-----x----|--1--3-----1--3-------|
--0--------------x----|----------------------|
--2--------------x----|-----------------0----|
--3--------0-----x----|--------------2-------|
----------------------|-----3----------------|

                                                          
--3-----------0-------------------------|----------------|
--------0-----------------------5--6----|--5--------5----|
--------------------------2-------------|-----7--5-------|
--------------------2-------------------|----------------|
--------------0-------------------------|----------------|
----------------------------------------|----------------|

  ^     v     ^     v          ^
--5-----------3-------------|--0-------------------|----------------------|
--5-----5-----3-----3-------|--1-----3--1-----x----|--1--3-----1--3-------|
--5-----7-----4-----4-------|--0--------------x----|--------------0-------|
--7-----5-----5-----7-------|--2--------------x----|----------------------|
--7-----7-----5-------------|--3--------0-----x----|--------------2-------|
--5--5-----5--3--3-----3----|----------------------|-----3----------------|

                                     harm on high notes until the end
----------------------|--------0-------------|--------------------12------|
--0-------------------|--0--------------12---|--13-------12-13------------|
--------2--------2----|-----2-----0--14------|--------2-------------------|
--0-----2-----2-------|----------------------|-----2-----------2----------|
--------0--0----------|----------------------|--0--------------------0----|
----------------------|----------------------|----------------------------|


----------------------------|----------------------------|
--12------------------------|--------------------13------|
-----------0----------------|--14-------12-14------------|
--------2-----2-----14------|--------3-------------------|
-----2----------------------|-----3----------------------|
--0-------------------------|--1--------------1----------|


----------------------------|----------------------------|-----12---------|
----------------------------|--------13----12----13-15---|--15----13------|
--12------------------------|--------------0-------------|--4-----2-------|
--------2--0--2-----14------|--15------------------------|----------------|
-----2----------------------|--0-------------------------|----------------|
--0-------------------------|----------------------------|----------------|


----------------------------|--------------------12-12---|
--5s-5--3--1--3-----0-------|----------------------------|
-----5--4--2--4-----0-------|--2-------------------------|
--------------------0-------|--2-------------------------|
-----0----------------------|--0--------------------0----|
--------3--1--3-------------|----------------------------|


--------------15----17L-----|--17---||
--15-13-15------------------|-------||
----------------------------|-------||
----------------------------|-------||
--------------2-----0L------|--0----||
--------3-------------------|-------||

Login or Register to remove this ad.