Login or Register to remove this ad.

Nostalgia (Lamento: Beyond the Void) Guitar Tab

Submitted: Feb 12, 2011 by hslesperance (Last updated: Jan 03, 2014)

5
Average: 5 (2 votes)
Download | Listen
Game: Lamento: Beyond the Void
Composer(s): Masayoshi Murakami, Yoh Ohyama
Style: Fingerstyle, Transcription

AutoScroll: Slow | Medium | Fast
Nostalgia
Lamento: Beyond the Void
Composed by Yoh Ohyama
Tabbed by hslesperance
2/12/11

Standard Tuning


Notes with a g below are ghost notes. 
Other notes in parentheses are tied notes.

Listen to which notes ring. The midi does not address held notes.


   H    +E..  T     H    +E..  T     H    +E..  T     H.
|-^0----(0)------|----------------|-^0----(0)------|--------|
|-^3----(3)------|-^3----(3)------|-^3----(3)------|-^3-----|
|-^2----(2)------|-^2----(2)------|-^2----(2)------|-^2-----|
|-^2----(2)--(2)-|-^2----(2)--(2)-|-^2----(2)--(2)-|-^2-----|
|----------------|----------------|----------------|--------|
|----------------|----------------|----------------|--------|
              g                g                g

   E E E Q  E    E E S S E Q     E E E E E E   E E E E +Q
|----3-3-2--0-|-^0-5-5s3-3-2--|--------0-----|-------0-(0)---|
|-^0----------|-^3------------|-^3---------3-|-----3---------|
|-^0----------|-^2------------|-^0---0---0---|---0-----------|
|-^2----------|-^0------------|----2---------|---------------|
|-------------|---------------|-^3-----------|-3-------------|
|-------------|---------------|--------------|---------------|


   E E S.T Q  E   E E E E E. +T. X   Q  E E E E   E E E a E Q
|----3-3s2-2--0-|-0-5-5-3-2--(2)---|----0-------|-----0-0h2----|
|-^1------------|-3----------------|-3------3---|-------3---3--|
|-^0------------|-2----------------|-0----0---0-|---2----------|
|---------------|-2--------------0-|------------|-0------------|
|-^0------------|------------------|------------|--------------|
|---------------|------------------|------------|--------------|


  E  E E E E E   S S E S S E Q     E E E E E E   E E E E E E
|---^3-3-2---0-|-----5-5s3-3-2--|------0-------|-------0-----|
|---^0---------|-5s7-7-7s5-5-3--|-^3-------3---|-----3-------|
|---^0-----0---|-7--------------|-^0-----0---0-|-----0-------|
|--------------|-7--------------|----2---------|---2---------|
|--------------|----------------|-^3-----------|-3-------3-2-|
|-0------------|----------------|--------------|-------------|


  E  E E E E E    E  E  E  E  Q      E E E E E E   E E E E E E
|---^3-3-2---0-|-^0/-5--5--3--2---|------0-------|-------0-----|
|---^1---------|-^3/-7-----5--3---|-^3-------3---|-----3-----3-|
|---^0-0-0-0---|-^2---------------|-^0-----0---0-|---2-----2---|
|--------------|-------------(4)--|----2---------|-0-----------|
|-0------------|-------(9)--------|-^3-----------|-------------|
|--------------|------------------|--------------|-------------|
                        g     g

  S S E E S S Q     E E E  E E e     E  E S S E e  e     E S S S a S E E E
|----------------|-^0-----^7-----|-^10\-7-7s4-5s7-(7)-|-^5-----5s7s5-5-----|
|-5s7-----8p7-7--|-^0---0-^5-5-8-|-^10\-------3-------|-^5---5---------5---|
|-5s7---7-7------|----0---^4-----|-^11\---------------|----5-------------5-|
|-----7----------|---------------|-^-0----------------|--------------------|
|----------------|---------------|--------------------|-^3-----------------|
|----------------|-^0------------|--------------------|--------------------|
                                                   g

  E E E E E E    E E E  E E e     E E E  Q  S S   E E E E E E
|-------5-----|--------^7-----|-^10-7-7-----7s5-|-5-----5------|
|-----5-------|-^5-----^5---5-|-^-7-----10------|-----5-----5--|
|---5---------|-^5---4-^5-5---|-^-7-------------|---5-----5----|
|-------------|-^5-5----------|-----------------|--------------|
|-3-------3-2-|---------------|-----------------|-3------------|
|-------------|-^5------------|-^-7-------------|--------------|


  E E E E E E    E E E  E E e     E  E S S Q  e    E E S S E E E
|-----3-2-0---|-^0-----^7-----|-^10\-7-7s5-5--7-|-^5---5s7-5-----|
|-----------3-|-^0---0-^8---8-|-^10\------------|-^5---------5---|
|---2-2-------|-^0-0---^9-9---|-^11\------------|----5---------5-|
|-0-----------|---------------|-^-0-------------|----------------|
|-------------|---------------|-----------------|-^3-------------|
|-------------|-^3------------|-----------------|----------------|


  E E E E E E    E E E  E E e     E E E  Q  E    E E E E E E
|-------5-----|--------^7-----|-^10-7-7-----7-|-^5-----5-----|
|-----5-------|-^5-----^5-5---|-^-7-----10----|-^5---5-----5-|
|---5---------|-^5---4-^5---5-|-^-7-----------|----5-----5---|
|-------------|-^5-5----------|---------------|--------------|
|-3-------3-2-|---------------|---------------|-^3-----------|
|-------------|-^5------------|-^-7-----------|--------------|


   E E E E Q     E E E E E E   E E E E +Q      E E E E E E
|-^2-----3-2--|-^2-----2-----|-0-----0-(0)--|-^2-----2-----|
|-^3---3-3----|-^0---0-----0-|-----0--------|-^0---0-----0-|
|-^2-2--------|-^2-2-----2---|---0----------|-^2-2-----2---|
|-^0----------|--------------|--------------|--------------|
|-------------|--------------|--------------|--------------|
|-------------|-^0-----------|--------------|-^0-----------|


  E E E E +Q      H.
|-0-----0-(0)--|-^0-----*|
|-----0--------|-^3-----*|
|---0----------|-^2-----*|
|--------------|-^2-----*|
|--------------|-^2-----*|
|--------------|-^0-----*|

h - hammer on
p - pull off
/ - slide upwards
\ - slide downwards
(n) - ghost note

W - whole
H - half
Q - quarter
E - 8th
S - 16th
T - 32nd
X - 64th
a - acciaccatura
+ - note tied to previous
. - note dotted
.. - note double dotted

Uncapitalized letters represent notes that are staccato (1/2 duration)
Login or Register to remove this ad.

2 comments on Nostalgia

wonderful! also a perfect

wonderful! also a perfect beginner tab ;)

yay! thank you! :3 /practices

yay! thank you! :3 /practices feverishly