A Cat Singing Songs (Lamento: Beyond the Void) Guitar Tab

Submitted: Jan 25, 2011 by hslesperance

5
Average: 5 (3 votes)
Download | Listen
Game: Lamento: Beyond the Void
Composer(s): Masayoshi Murakami, Yoh Ohyama
Style: 2 or more instruments, Transcription

AutoScroll: Slow | Medium | Fast
A Cat Singing Songs
Lamento: Beyond the Void
Composed by Masayoshi Murakami
Tabbed by hslesperance
1/24/11

Guitars 1 & 3 - Standard Tuning
Guitar 2 - Drop D Tuning



Most of the notes in parentheses are tied notes except the ones with a g below.
Those notes are ghost notes. Also watch for staccato notes on the first guitar.

And thanks to RexLeRouge for his help on this tab!




Guitar 1

  W               Q       E.     S S E    S E.      S      E    E   H.
|---------------|----------------8----------------------|--------------------------------|
|---------------|---------6--------8-6----8-6------(8)--|-(6)----------------------------|
|---------------|---------------------------------------|--------------------------------|
|---------------|---------------------------------------|--------------------------------|
|---------------|---------------------------------------|--------------------------------|
|---------------|---------------------------------------|--------------------------------|
                                                    g      g

  E.     S S  S  S  S   S   S  S   S   +Q
|------------------------------------------------|
|-------------8--------10---------11--(11)-------|
|------------------------------------------------|
|--------7s8-(8)-8s10-(10)-10s12-(12)------------|
|------------------------------------------------|
|------------------------------------------------|


  W               Q       E.     S S E    S E.      S      E    E   H.
|---------------|----------------8----------------------|--------------------------------|
|---------------|---------6--------8-6----8-6------(8)--|-(6)----------------------------|
|---------------|---------------------------------------|--------------------------------|
|---------------|---------------------------------------|--------------------------------|
|---------------|---------------------------------------|--------------------------------|
|---------------|---------------------------------------|--------------------------------|
                                                    g      g

  W                     W
|---------------------|---------------------|
|---------------------|---------------------|
|---------------------|---------------------|
|---------------------|---------------------|
|---------------------|---------------------|
|---------------------|---------------------|


  H.               S  S  S  S    S  H           Q      S   S  S
|------------------------8----|----------------------------------|
|--------------------------10-|-10h11---------------------10-11--|
|---------------------7-------|-----------------------12---------|
|-----------------------------|----------------------------------|
|-----------------------------|----------------------------------|
|-----------------------------|----------------------------------|


   S  S  S  H         E  S  S  S    S  H           Q      S   S  S
|---------------------------8----|---------------------------------|
|-11h13-11-10-----------------10-|-10h11---------------------10-11-|
|------------------------7-------|-----------------------12--------|
|--------------------------------|---------------------------------|
|--------------------------------|---------------------------------|
|--------------------------------|---------------------------------|


   S  S  S  e  e   S  +Q          S  S  S  S    S  H           Q      S   S  S
|---------------------------------------8----|-----------------------------------|
|-11h13-11-10-----------------------------10-|-10h11---------------------10-11---|
|-------------12--11-(11)------------7-------|-----------------------12----------|
|--------------------------------------------|-----------------------------------|
|--------------------------------------------|-----------------------------------|
|--------------------------------------------|-----------------------------------|


   S  S  S  H         E  S  S  S    S  H           Q      S   S  S
|---------------------------8----|---------------------------------|
|-11h13-11-10-----------------10-|-10h11---------------------10-11-|
|------------------------7-------|-----------------------12--------|
|--------------------------------|---------------------------------|
|--------------------------------|---------------------------------|
|--------------------------------|---------------------------------|

                                                ~~~~
   S  S  S  e  e   S  +H                 S  S  +H             S  e   e   S
|-------------------------------------|---------------------------------------|
|-11h13-11-10-------------------------|-------------------------10--11--10----|
|-------------12--11-(11)-------------|-10s12-(12)-----------12---------------|
|-------------------------------------|---------------------------------------|
|-------------------------------------|---------------------------------------|
|-------------------------------------|---------------------------------------|

    ~~~~                                ~~~~
   +H            E  S  e   S   s  S    +H            E  S  e   S   s  S
|-----------------------------------|-----------------------------------|
|-(10)-------------10-11--11s=13-11-|-(11)-------------11-13--13s=15-10-|
|-----------------------------------|-----------------------------------|
|-----------------------------------|-----------------------------------|
|-----------------------------------|-----------------------------------|
|-----------------------------------|-----------------------------------|

                                                        ~~~~
   +E   S  S   S  S   S  S  S  S  +Q.            S  S  +H             S  e   e   S
|---------------------------------------------|-------------------------------------|
|-(10)-11p10-----10---------------------------|-------------------------10--11--10--|
|-------------12-----12-10----10-(10)---------|-10s12-(12)-----------12-------------|
|--------------------------12-----------------|-------------------------------------|
|---------------------------------------------|-------------------------------------|
|---------------------------------------------|-------------------------------------|

    ~~~~                                ~~~~
   +H            E  S  e   S   s  S    +H            S  E    S   S.      S.  S
|-----------------------------------|------------------13-------11----------10-|
|-(10)-------------10-11--11s=13-11-|-(11)------------------------------13-----|
|-----------------------------------|------------------------------------------|
|-----------------------------------|------------------------------------------|
|-----------------------------------|------------------------------------------|
|-----------------------------------|------------------------------------------|


   S.  S.  S  S.    S.  S  H            W
|------------------------------------|-------------------------|
|-11--13--10-11--------10------------|-------------------------|
|------------------12-----11\--------|-------------------------|
|------------------------------------|-------------------------|
|------------------------------------|-------------------------|
|------------------------------------|-------------------------|


  W                             W
|----------------------------|-----------------------|
|----------------------------|-----------------------|
|----------------------------|-----------------------|
|----------------------------|-----------------------|
|----------------------------|-----------------------|
|----------------------------|-----------------------|


  H.               S  S  S  S    S  H           Q      S   S  S
|------------------------8----|-----------------------------------|
|--------------------------10-|-10h11---------------------10-11---|
|---------------------7-------|-----------------------12----------|
|-----------------------------|-----------------------------------|
|-----------------------------|-----------------------------------|
|-----------------------------|-----------------------------------|


   S  S  S  H         E  S  S  S    S  H           Q      S   S  S
|---------------------------8----|---------------------------------|
|-11h13-11-10-----------------10-|-10h11---------------------10-11-|
|------------------------7-------|-----------------------12--------|
|--------------------------------|---------------------------------|
|--------------------------------|---------------------------------|
|--------------------------------|---------------------------------|


   S  S  S  e  e   S  +Q          S  S  S  S    S  H           Q      S   S  S
|---------------------------------------8----|-----------------------------------|
|-11h13-11-10-----------------------------10-|-10h11---------------------10-11---|
|-------------12--11-(11)------------7-------|-----------------------12----------|
|--------------------------------------------|-----------------------------------|
|--------------------------------------------|-----------------------------------|
|--------------------------------------------|-----------------------------------|


   S  S  S  H         E  S  S  S    S  H           Q      S   S  S
|---------------------------8----|---------------------------------|
|-11h13-11-10-----------------10-|-10h11---------------------10-11-|
|------------------------7-------|-----------------------12--------|
|--------------------------------|---------------------------------|
|--------------------------------|---------------------------------|
|--------------------------------|---------------------------------|

                                                ~~~~
   S  S  S  e  e   S  +H                 S  S  +H                 S  e   e   S
|-------------------------------------|-----------------------------------------|
|-11h13-11-10-------------------------|-----------------------------10--11--10--|
|-------------12--11-(11)-------------|-10s12-(12)---------------12-------------|
|-------------------------------------|-----------------------------------------|
|-------------------------------------|-----------------------------------------|
|-------------------------------------|-----------------------------------------|

    ~~~~                                          ~~~~
   +H                   E     S  e   S   s  S    +H                E    S  e   S   s  S
|---------------------------------------------|-----------------------------------------|
|-(10)-----------------------10-11--11s=13-11-|-(11)-------------------11-13--13s=15-10-|
|---------------------------------------------|-----------------------------------------|
|---------------------------------------------|-----------------------------------------|
|---------------------------------------------|-----------------------------------------|
|---------------------------------------------|-----------------------------------------|

                                                             ~~~~
   +E      S  S   S  S   S  S  S  S  +Q.              S  S  +H                 S  e   e   S
|--------------------------------------------------|-------------------------------------------|
|-(10)----11p10-----10-----------------------------|-----------------------------10--11--10----|
|----------------12-----12-10----10-(10)-----------|-10s12-(12)---------------12---------------|
|-----------------------------12-------------------|-------------------------------------------|
|--------------------------------------------------|-------------------------------------------|
|--------------------------------------------------|-------------------------------------------|

    ~~~~                                          ~~~~
   +H                   E     S  e   S   s  S    +H                S  E.        S.      S.  S
|---------------------------------------------|----------------------13\-------11----------10-|
|-(10)-----------------------10-11--11s=13-11-|-(11)-----------------------------------13-----|
|---------------------------------------------|-----------------------------------------------|
|---------------------------------------------|-----------------------------------------------|
|---------------------------------------------|-----------------------------------------------|
|---------------------------------------------|-----------------------------------------------|

                                   ~~~~
   S.    S.    S  S.    S.  S  S  +Q        S   S  S    E.      E.      S  E.      +E    S   S    S   S
|----------------------------------------------------|-----------------------------------------------------|
|-11----13----10-11--------10--------------10--11-13-|-10------11--------------------------(10)-(11)-13----|
|----------------------12-----11-(11)-----(11)-------|-----------------10s12------(12)---------------------|
|----------------------------------------------------|-----------------------------------------------------|
|----------------------------------------------------|-----------------------------------------------------|
|----------------------------------------------------|-----------------------------------------------------|
                                                                                             g    g

   E.      E.      E   H               Q       S  S   S S  S S  S  E  e   S
|------------------------------------|--------------------------------------|
|-10------11-------------------------|--------------------------------------|
|-----------------10---9-------------|------------9--10-9----9--------------|
|------------------------------------|--------------------12---12-10-10-----|
|------------------------------------|-----------------------------------13-|
|------------------------------------|--------------------------------------|


   +Q        Q       S S  S S  S  S   S  S    H             S E    E  a  E   S
|------------------------------------------|-----------------------------------|
|------------------------------------------|-------------------------12s13--13-|
|------------------------------------------|-10---------------9---10-----------|
|---------------------------8-----8--10s12-|-----------------------------------|
|-(13)-----------------8-10---10-----------|-----------------------------------|
|------------------------------------------|-----------------------------------|


   +E     e    S  S   S  S  E    Q.             S S  S S  S  S   S  S  S  S  Q.
|-------------------------------------------|------------------------------------------|
|-(13)---11---11-10-----10------------------|------------------------------------------|
|--------------------12----10---10----------|---9h10p9-----9---------------------------|
|-------------------------------------------|----------12-----12p10----10--------------|
|-------------------------------------------|-----------------------12----13-----------|
|-------------------------------------------|------------------------------------------|


  S T  T  T  T  T  T  T  T  T   T  T  T  T  T  T  T  T  T  T  T  T  T  T  T  T   T  T  T  T  T
|----------------------------------------------------------------------------------------10-11s|
|-------------------------------------------------------------------------------10-11-13-------|
|---------------------------------------------------------------10-------10-12-----------------|
|--------------------------10--------10-12----10-12-13-10-12-13----12-13-----------------------|
|--------10-12-13-10-12-13-----13-13-------13--------------------------------------------------|
|-----13---------------------------------------------------------------------------------------|

                   ~~~
   E.      E.      Q.            +S   S   S  S
|-13------12--------------------------------------|
|-----------------13------------(13)-11--10-------|
|-------------------------------------------12----|
|-------------------------------------------------|
|-------------------------------------------------|
|-------------------------------------------------|

                                                                 ~~~~
   S  S  S  S  S  a  E   S  E    S  S  S.      S.  S    S  E    +Q      Q       E  S   S  S
|----------------------------------------------------|-----------------------------------13-|
|-10-------------------------------------------------|----------------------------10--11----|
|----12-10----10-------------------------------------|--------------------------------------|
|----------12----12s10-------------10----------------|--------------------------------------|
|-----------------------13-12---13----12------13--10-|-12-----------------------------------|
|----------------------------------------------------|----13---(13)-------------------------|

                                                            ~~~~~~~~
   +S   S  S  E  S   S  E    e    S  S  S   S  S    S.  T  +E   +H.         W
|-(13)-------13--------13---11---10h11p10-----10-|-----------------------|---------------*|
|------10-11----10--11---------------------13----|-11--10-(10)-(10)------|---------------*|
|------------------------------------------------|-----------------------|---------------*|
|------------------------------------------------|-----------------------|---------------*|
|------------------------------------------------|-----------------------|---------------*|
|------------------------------------------------|-----------------------|---------------*|




Guitar 2

  S S S S E.   S S S S S S S S S   S S S S S S S S S S E.   S S S
|--------------------------------|--------------------------------|
|---------3----------------------|--------------------------------|
|-----3------------------7-------|--------------------------------|
|---5---5----------7-8-7---8-7-8-|---7-8-7-7-8-7-7-7-8-7----8-7-8-|
|-6------------6s8---------------|--------------------------------|
|--------------------------------|-5------------------------------|


  S S S S E.   S S S S S S S S S   S S S S S S S S S S E  S S S S
|--------------------------------|------------------------5---5-6-|
|---------3----------------------|--------------------------------|
|-----3------------------7-------|--------------------------5-----|
|---5---5----------7-8-7---8-7-8-|---7-8-7-7-8-7-7-7-8-7----------|
|-6------------6s8---------------|--------------------------------|
|--------------------------------|-5------------------------------|


  S S S S E.   S S S S S S S S S   S S S S S S S S S S E.   S S S
|--------------------------------|--------------------------------|
|---------3----------------------|--------------------------------|
|-----3------------------7-------|--------------------------------|
|---5---5----------7-8-7---8-7-8-|---7-8-7-7-8-7-7-7-8-7----8-7-8-|
|-6------------6s8---------------|--------------------------------|
|--------------------------------|-5------------------------------|


  S S S S E.   S S S S S S S S S   E  S E  E.   E  S E  E.
|--------------------------------|---------------------------|
|---------3----------------------|---------6------------6----|
|-----3------------------7-------|---------------------------|
|---5---5----------7-8-7---8-7-8-|----7-8-(8)------7-8-(8)---|
|-6------------6s8---------------|---------------------------|
|--------------------------------|-5------------5------------|
                                   H            H




   E  S E  E.   E  S E  E.     E  S E  E.   E  S E  E.
|----------------------------|---------------------------|
|o---------6------------6----|---------6------------6----|
|----------------------------|---------------------------|
|----7-8--(8)------7-8-(8)---|---7-8--(8)------7-8-(8)---|
|o---------------------------|---------------------------|
|--5------------5------------|-5------------5------------|
   H            H              H            H


  E  S E  E.   E  S E  E.     E  S E  E.   E  S E  E.
|---------------------------|---------------------------|
|---------6------------6----|---------6------------6----|
|---------------------------|---------------------------|
|---7-8--(8)------7-8-(8)---|---7-8--(8)------7-8-(8)---|
|---------------------------|---------------------------|
|-5------------5------------|-5------------5------------|
  H            H              H            H


  E  S E  E.   E  S E  E.     E  S E  E.   E  S E  E.
|---------------------------|---------------------------|
|---------5------------5----|---------6------------6----|
|---------------------------|---------------------------|
|---5-8--(8)------5-8-(8)---|---7-8--(8)------7-8-(8)---|
|---------------------------|---------------------------|
|-5------------5------------|-5------------5------------|
  H            H              H            H


  E  S E  E.   S S S  E   E.     E  S E  E.   E  S E  E.
|------------------------------|---------------------------|
|---------6--------------------|---------6------------6----|
|---------------------7---7----|---------------------------|
|----7-8-(8)-----5-7-(7)-(7)---|----7-8-(8)------7-8-(8)---|
|-6------------5---------------|---------------------------|
|------------------------------|-5------------5------------|
  H            H                 H            H


  E  S E  E.   E  S E  E.     E  S E  E.   E  S E  E.
|---------------------------|---------------------------|
|---------5------------5----|---------6------------6----|
|---------------------------|---------------------------|
|---5-8--(8)------5-8-(8)---|---7-8--(8)------7-8-(8)---|
|---------------------------|---------------------------|
|-5------------5------------|-5------------5------------|
  H            H              H            H


  E  S E  E.   S S S  E   E.     E  S   E   E.   E  S E    E.
|------------------------------|--------------------------------|
|---------6--------------------|--------------------------------|
|---------------------7---7----|--------8---7----------8---7----|
|----7-8-(8)-----5-7-(7)-(7)---|----8--(8)-(8)------8-(8)-(8)---|
|-6------------5---------------|-6---------------6--------------|
|------------------------------|--------------------------------|
  H            H                 H               H


  E  S  E   E.   E  S  E   E.     E  S  E   E.   E  S  E   E.
|-------------------------------|-------------------------------|
|-------6--(6)---------6--(6)---|-------------------------------|
|----5-(5)--7-------5-(5)--7----|-------8---7----------8---7----|
|-------------------------------|----8-(8)-(8)------8-(8)-(8)---|
|-8--------------8--------------|-6--------------6--------------|
|-------------------------------|-------------------------------|
  H              H                H              H


  E  S  E   E.   E  S  E   E.     E  S  E   E.   E  S  E   E.
|-------------------------------|-------------------------------|
|-------6--(6)---------6--(6)---|-------------------------------|
|----5-(5)--7-------5-(5)--7----|-------8---7----------8---7----|
|-------------------------------|----8-(8)-(8)------8-(8)-(8)---|
|-8--------------8--------------|-6--------------6--------------|
|-------------------------------|-------------------------------|
  H              H                H              H


  E  S  E   E.   E  S  E   E.     E  S  E   E.   E  S  E   E.
|-------------------------------|-------------------------------|
|-------6--(6)---------6--(6)---|-------------------------------|
|----5-(5)--7-------5-(5)--7----|-------8---7----------8---7----|
|-------------------------------|----8-(8)-(8)------8-(8)-(8)---|
|-8--------------8--------------|-6--------------6--------------|
|-------------------------------|-------------------------------|
  H              H                H              H


  E.   S S E  S H          E  S E  E.   E  S E  E.
|------3-x-3--3-2--------|----------------------------|
|------3-x-3--3-3--------|---------6------------6----o|
|------2-x-2--2-2--------|----------------------------|
|-0----0-x-0--0-0--------|----7-8-(8)------7-8-(8)----|
|-0----------------------|---------------------------o|
|-0----------------------|-5------------5-------------|
                           H            H



Play 11x

  E  S E  E.   E  S E  E.
|---------------------------|
|---------6------------6----|
|---------------------------|
|---7-8--(8)------7-8-(8)---|
|---------------------------|
|-5------------5------------|
  H            H             

Rest for last two measures




Guitar 3

Rest for 26 measures

  H.               E.      S    W
|-------------------------!3-|-(3)-------------------|
|-------------------------!3-|-(3)-------------------|
|-------------------------!3-|-(3)-------------------|
|-------------------------!5-|-(5)-------------------|
|-------------------------!5-|-(5)-------------------|
|----------------------------|-!3--------------------|

  H.               E.      S    W
|-------------------------!3-|-(3)-------------------|
|-------------------------!3-|-(3)-------------------|
|-------------------------!3-|-(3)-------------------|
|-------------------------!5-|-(5)-------------------|
|-------------------------!5-|-(5)-------------------|
|----------------------------|-!3--------------------|


  W                            W
|----------------------------|-3--------------------|
|----------------------------|-3--------------------|
|----------------------------|-3--------------------|
|----------------------------|-5--------------------|
|----------------------------|-5--------------------|
|----------------------------|-3--------------------|


  W                            W
|-3--------------------------|-3--------------------|
|-5--------------------------|-3--------------------|
|-5--------------------------|-3--------------------|
|-5--------------------------|-5--------------------|
|-3--------------------------|-5--------------------|
|----------------------------|-3--------------------|


  H            H               W
|-6------------5-------------|-3--------------------|
|-8------------7-------------|-3--------------------|
|-8------------7-------------|-3--------------------|
|-8------------7-------------|-5--------------------|
|-6------------5-------------|-5--------------------|
|----------------------------|-3--------------------|


  W                            W
|-3--------------------------|-3--------------------|
|-5--------------------------|-3--------------------|
|-5--------------------------|-3--------------------|
|-5--------------------------|-5--------------------|
|-3--------------------------|-5--------------------|
|----------------------------|-3--------------------|


  H            H               S S S e  e  S S S S e  e  S
|-6------------5-------------|-6-6-6-6--6----6-6-6-6--6----|
|-8------------7-------------|-8-8-8-8--8----8-8-8-8--8----|
|-8------------7-------------|-7-7-7-7--7----7-7-7-7--7----|
|-8------------7-------------|-8-8-8-8--8----8-8-8-8--8----|
|-6------------5-------------|-6-6-6-6--6----6-6-6-6--6----|
|----------------------------|-----------------------------|


    S   S  S  e   e  S  S  S  S  e   e   S   S S S e  e  S S S S e  e S
|---8---8--8--8---8-----8--8--8--8---8-----|-6-6-6-6--6----6-6-6-6--6---|
|---8---8--8--8---8-----8--8--8--8---8-----|-8-8-8-8--8----8-8-8-8--8---|
|--10--10-10-10--10----10-10-10-10--10-----|-7-7-7-7--7----7-7-7-7--7---|
|--10--10-10-10--10----10-10-10-10--10-----|-8-8-8-8--8----8-8-8-8--8---|
|---8---8--8--8---8-----8--8--8--8---8-----|-6-6-6-6--6----6-6-6-6--6---|
|------------------------------------------|----------------------------|


    S   S  S  e   e  S  S  S  S  e   e   S   S S S e  e  S S S S e  e S
|---8---8--8--8---8-----8--8--8--8---8-----|-6-6-6-6--6----6-6-6-6--6---|
|---8---8--8--8---8-----8--8--8--8---8-----|-8-8-8-8--8----8-8-8-8--8---|
|--10--10-10-10--10----10-10-10-10--10-----|-7-7-7-7--7----7-7-7-7--7---|
|--10--10-10-10--10----10-10-10-10--10-----|-8-8-8-8--8----8-8-8-8--8---|
|---8---8--8--8---8-----8--8--8--8---8-----|-6-6-6-6--6----6-6-6-6--6---|
|------------------------------------------|----------------------------|


    S   S  S  e   e  S  S  S  S  e   e   S   S S S e  e  S S S S e  e S
|---8---8--8--8---8-----8--8--8--8---8-----|-6-6-6-6--6----6-6-6-6--6---|
|---8---8--8--8---8-----8--8--8--8---8-----|-8-8-8-8--8----8-8-8-8--8---|
|--10--10-10-10--10----10-10-10-10--10-----|-7-7-7-7--7----7-7-7-7--7---|
|--10--10-10-10--10----10-10-10-10--10-----|-8-8-8-8--8----8-8-8-8--8---|
|---8---8--8--8---8-----8--8--8--8---8-----|-6-6-6-6--6----6-6-6-6--6---|
|------------------------------------------|----------------------------|


  S S S e  e  S S S S e e  S   S S S e  e  S S S S e  e  S
|-5-5-5-5--5----5-5-5-5-5----|-3-3-3-3--3----3-3-3-3--3----|
|-8-8-8-8--8----7-7-7-7-7----|-6-6-6-6--6----6-6-6-6--6----|
|-7-7-7-7--7----7-7-7-7-7----|-3-3-3-3--3----3-3-3-3--3----|
|-7-7-7-7--7----7-7-7-7-7----|-3-3-3-3--3----3-3-3-3--3----|
|-5-5-5-5--5----5-5-5-5-5----|-5-5-5-5--5----5-5-5-5--5----|
|----------------------------|-3-3-3-3--3----3-3-3-3--3----|



Play 11x

  S S S e  e  S S S S e  e  S
|-3-3-3-3--3----3-3-3-3--3----|
|-6-6-6-6--6----6-6-6-6--6----|
|-3-3-3-3--3----3-3-3-3--3----|
|-3-3-3-3--3----3-3-3-3--3----|
|-5-5-5-5--5----5-5-5-5--5----|
|-3-3-3-3--3----3-3-3-3--3----|


  W                      +H.      Q
|-3--------------------|-(3)-----------*|
|-6--------------------|-(6)-----------*|
|-3--------------------|-(3)-----------*|
|-3--------------------|-(3)-----------*|
|-5--------------------|-(5)-----------*|
|-3--------------------|-(3)-----------*|

h - hammer on
p - pull off
g - ghost note
s - slide
\ - slide down
~ - vibrato
x - muted note
! - downstroke arpeggio

W - whole
H - half
Q - quarter
E - 8th
S - 16th
T - 32nd
a - acciaccatura
+ - note tied to previous
. - note dotted

Uncapitalized letters represent notes that are staccato (1/2 duration)
Low melody durations appear below the staff
Login or Register to remove this ad.

3 comments on A Cat Singing Songs

You're the best, thank you

5

You're the best, thank you very much! :)

Also include the Japanese name?

5

I love you to death for doing the tabs for this song. I've been looking EVERYWHERE. But as a side note, you should add the romaji "Utautai no Neko" in the song title. This was a bear to find because I never really thought to use the translated song title. That might just be me, but I figured I'd mention it anyway!

One guitar tab

Before I found this tab, I figured out a way to do the first 12-ish seconds of the song with one guitar. I use a capo on the 3rd fret, here's the tab:

E|------------------------------------------------------------------------8--3--------3-----------------------------------------------------------------------------3-------5--------6---
B|-----------------3--------------------3------------------------6--------------6--------6--------------------------3--------------------3-----------------------------------------------
G|----------3--------------------3---------3------3--------3--------3-----3--------3--------3-----3----------3--------------------3---------3------3--------3-----3------5--------7------
D|------------------------3-----------------------------7-----7--------7--------7-----7--------7---------------------------3-----------------------------7-----7-------7-------3---------
A|------10-----10------------12-----12--------12---------------------------------------------------------10-----10------------12-----12--------12----------------------------------------
E|--11----------------11-----------------------------3-----------------------3-----------------------11----------------11-----------------------------3----------------------------------