Ads

Town of Decease (Poper) (Lagoon) Guitar Tab

Submitted: Feb 26, 2016 by BacardiBreezer

0
Download | Listen
Game: Lagoon
Composer(s): Unknown
Style: Alternate picking, Transcription

AutoScroll: Slow | Medium | Fast
Town of Decease (Poper)
Lagoon
Composer: Hideki Suzuki
Tabbed by BB
11/15/15

Lead

e|--12--|-----12-15----13--12-------|        |-----|-----|-----|
B|------|--15------------------11~--|        |--3--|--3--|--3--|
G|------|---------------------------|        |--3--|--2--|--2--|
D|------|---------------------------|        |-----|-----|-----|
A|------|---------------------------|        |-----|-----|-----|
E|------|---------------------------| x3     |-----|-----|-----|

e|--17~-------17-20---18----17--|-----17-20---18----17--------|--------15-------------------------|
B|---------20-------------------|--20------------------18-18--|--17-18----17------18-17-15----15--|
G|------------------------------|-----------------------------|----------------------------17-----|
D|------------------------------|-----------------------------|-----------------------------------|
A|------------------------------|-----------------------------|-----------------------------------|
E|------------------------------|-----------------------------|-----------------------------------|





Login or Register to remove this ad.