Ads

Intro and Final Battle (Lagoon) Bass/Guitar Tab

Submitted: Mar 01, 2012 by auriplane

5
Average: 5 (2 votes)
Download | Listen
Game: Lagoon
Composer(s): Unknown
Style: 2 or more instruments, Alternate picking, Transcription

AutoScroll: Slow | Medium | Fast
                                  Lagoon - Intro & Final Battle
                              Composed by Composed by Hideki Suzuki

                             Tabbed by Auriplane ([email protected])


About the solo:

The solo turns out to be simpler than it sounds, because there's a dotted sixteenth note delay on
the lead.  Since it's exactly a dotted sixteenth, it makes it sound like a ton of 32nd notes, when
it's really just (playable) sixteenths with an echo.

HOWEVER, there's 3 parts where the composer chose to cut the echo out, and in its place put actual
32nd notes.  They're too fast for me to play, so I did my best to transcribe them, but you might
have to work on the fingerings for those parts to get them playable.  I don't know.

The bend up to 27 isn't bent in the original, but I only have 24 frets.  Actually, there's a couple
rather large bends in this tab, so I hope you're using 9s @[email protected];

About the rest:

The rhythm guitar and bass are pretty easy to play in this song, and are pretty fun :-)  And the lead
isn't too bad, if you ignore the solo.  I really like this song!!  There's a GP5 file with these three
parts plus drums, if you want it.  Anyway, I recommend trying out the rhythm guitar.  It sounds cooler
on a real guitar!



                                         LEAD GUITAR PART


     W                   W                   Q      H.              W                    W
E||-------------------|-------------------|----------------------|-------------------|--------------------|
B||--5----------------|--L----------------|--5S----17------------|--L----------------|--17----------------|
G||-------------------|-------------------|----------------------|-------------------|--------------------|
D||-------------------|-------------------|----------------------|-------------------|--------------------|
A||-------------------|-------------------|----------------------|-------------------|--------------------|
E||-------------------|-------------------|----------------------|-------------------|--------------------|


  Q.      S  S  E.   E.   E      W                    S  S  S  S  S  S  S  S  S S S  S S  S  S  S
---------------19---17-------|--------------------|-----------22-20-19----------------------------|
--L------19-20-----------20--|--------------------|--22-20-19----------22-20-19-----22-L-20-19----|
-----------------------------|--17----------------|--------------------------------------------19-|
-----------------------------|--------------------|-----------------------------------------------|
-----------------------------|--------------------|-----------------------------------------------|
-----------------------------|--------------------|-----------------------------------------------|


   W                    S  S  S  S S  S  S  S  Q    E   S  S     H         S  S  S  S S  S  S  S
--19----------------|-----------19-L-------------------------|-----------------------------------|
--------------------|--22-20-19------22-20-19----------------|--20--------17-19-20-17-L-20-22-20-|
--------------------|-------------------------21----L--17-21-|-----------------------------------|
--------------------|----------------------------------------|-----------------------------------|
--------------------|----------------------------------------|-----------------------------------|
--------------------|----------------------------------------|-----------------------------------|


   W                     H         E   S  S S  S S  S    W                    H         H
---------------------|-------------------15---15---14-|--L----------------|------------17--------|
--23b----------------|--13--------13--17--------------|-------------------|----------------------|
---------------------|--------------------------------|-------------------|--16------------------|
---------------------|--------------------------------|-------------------|----------------------|
---------------------|--------------------------------|-------------------|----------------------|
---------------------|--------------------------------|-------------------|----------------------|


   Q     Q     Q     Q        H         S  S  S  S  S  S  S  S     H         S  S  S  S  S  S  S  S
--15----14----------15----|------------------15-19-17-15-------|---------------------22-20-19----19-|-------|
--------------17----------|--13--------13-17-------------19-17-|--15--------19-15-19----------22----|-------|
--------------------------|------------------------------------|------------------------------------|-------|
--------------------------|------------------------------------|------------------------------------|-------|
--------------------------|------------------------------------|------------------------------------|-------|
--------------------------|------------------------------------|------------------------------------|-------|


                                                           H        S  S  S  S  S  S S  S
-------|-------|-------|-------|-------|-------|-------|----------------------------------|
-------|-------|-------|-------|-------|-------|-------|--12-------------12-10------------|
-------|-------|-------|-------|-------|-------|-------|------------9-12-------12-11-9-12-|
-------|-------|-------|-------|-------|-------|-------|----------------------------------|
-------|-------|-------|-------|-------|-------|-------|----------------------------------|
-------|-------|-------|-------|-------|-------|-------|----------------------------------|


   S  S S  S  S S  S  S  H            S S  S  S  S  S  S  S  S S S  S S S  S S
----------------------------------|--------------------------------------------|
----------10----------------------|----------------------10-12-----10----------|
--11---------11-9----11-----------|-----9-11----12-11-12-------9-9----9-9-12-9-|
-----12-9---------12----10--------|--12------12--------------------------------|
----------------------------------|--------------------------------------------|
----------------------------------|--------------------------------------------|


  S  S S S  T  T   T   T T   T   T  T   T  T  T  T  T   T  T   T  S  S  S S
---------------------------------------------10p-8--------------------------|
-----------------------------------10h-12p-8-------12p-10p-8h-12-10---------|
--9-11-9-9---------------9h-11h-12----------------------------------12-11-9-|
-----------10p-9h-10h-12----------------------------------------------------|
----------------------------------------------------------------------------|
----------------------------------------------------------------------------|


   Q      Q        S  S  S  S  S  S  S  S     S  S  S  S  S  S  S  S  S  S  S  S  S  S  S  S
------------------------------------------|-----19----19----20----20-17-------17-------------|
--20b----20pbr----17-20-17-20-17-22-17-22-|--17----17----17----17-------20-19----19-------17-|
------------------------------------------|-----------------------------------------17-19----|
------------------------------------------|--------------------------------------------------|
------------------------------------------|--------------------------------------------------|
------------------------------------------|--------------------------------------------------|


   S  S  S  S  S  S  S  S  S  S  S  S  S  S  S  S     H         H             H.             S  S  S  S
-----------------------17-19-17----------------17-|--22---------L\--------|--------------------------19-|
--------------17-19-20----------20-19-15-17-19----|-----------------------|--24b------------20-18-17----|
--17-16-17-19-------------------------------------|-----------------------|-----------------------------|
--------------------------------------------------|-----------------------|-----------------------------|
--------------------------------------------------|-----------------------|-----------------------------|
--------------------------------------------------|-----------------------|-----------------------------|


   S  S  S  S  T   T   T   T  T   T   T   T  T   T   T   T  T   T   T   T  Q
--17----------------------------------------15h-17p-15h-17-17h-19p-17h-19-20----|
-----20-19-------------------17h-19p-17h-19-------------------------------------|
-----------19-17h-19p-17h-19----------------------------------------------------|
--------------------------------------------------------------------------------|
--------------------------------------------------------------------------------|
--------------------------------------------------------------------------------|


   S  S  S  S  S  S  S  S  S   S     S  S  Q         S  S  S  S  H         Q
--22-20-19-20----19-22-20-24b-24pbr-19-20-20b----|--20-19-20-19-17--------------|
--------------20---------------------------------|------------------------17----|
-------------------------------------------------|------------------------------|
-------------------------------------------------|------------------------------|
-------------------------------------------------|------------------------------|
-------------------------------------------------|------------------------------|


  Q    S  S  S  S  S  S  S  S  Q        S. S. S  H         S  S  S  S
---------19-17-15----15-17----------|---------------------------------|
--L---------------19----------------|---------------------------------|
---------------------------19-16----|--14-14-14-12--------------------|
------------------------------------|---------------------12----12-14-|
------------------------------------|------------------------15-------|
------------------------------------|---------------------------------|


   S  S  S  S  S  S  S  S  S  S  S  S  S  S  S  S
--------------------------------------------------|
--------------15-------13-------------------------|
--12-16-14-12-------------------16-------14-------|
-----------------12-12----12-12----12-12----12-12-|
--------------------------------------------------|
--------------------------------------------------|


   S  S  S  S  T   T   T   T  T   T   T   T  T  T   T   T T   T   T  T T  T   T T   T   T T   T
------------------------------------------------------------------------------------------8h-10h-|
--------------------------------------------------------------------------------8h-10h-12--------|
--12-------11---------------------------------------------9h-11h-12p-9-7h-9h-11------------------|
-----12-12-------------------10h-12h-14p-12-10p-9h-10h-12----------------------------------------|
--------------12p-10h-12h-14---------------------------------------------------------------------|
-------------------------------------------------------------------------------------------------|


   T  T   T   T  Q.      H            W
--12-11h-15h-17-19------19\--------|-------------------||
-----------------------------------|-------------------||
-----------------------------------|-------------------||
-----------------------------------|-------------------||
-----------------------------------|-------------------||
-----------------------------------|-------------------||







                                              RHYTHM GUITAR


     S S S S S S S S S S S S E  S S    S S S S S S S S  S S S S S S  S S    S S S S S S S S S S S S E  S S
E||---------------------------------|------------------------------------|---------------------------------|
B||------------------8--------------|------------------------------------|------------------8--------------|
G||------9-----7-----7-----7-L--9---|------9-----7------------7-L------7-|------9-----7-----7-----7-L--9---|
D||------9-----7-----------7-L--9---|------9-----7-----10-----7-L-9-10-7-|------9-----7-----------7-L--9---|
A||--7-7---7-7---7-7---7-7--------7-|--7-7---7-7---7-7-10-7-7-----9-10---|--7-7---7-7---7-7---7-7--------7-|
E||---------------------------------|------------------------------------|---------------------------------|


  S S S S S S S S S  S S S S  S S S    S S S S S S S S S S S S E  S S    S S S S S S S S S S S S E  S S
------------------------------------|---------------------------------|---------------------------------|
------------------------------------|------------------8--------------|------------------8--------------|
------9-----7-----------------------|------9-----7-----7-----7-L--9---|------9-----7-----7-----7-L--9---|
------9-----7--------------7----7-9-|------9-----7-----------7-L--9---|------9-----7-----------7-L--9---|
--7-7---7-7---7-7---10-7-----10-----|--7-7---7-7---7-7---7-7----------|--7-7---7-7---7-7---7-7----------|
------------------8------8----------|---------------------------------|---------------------------------|


  S S S S S S S S S S S S E  S S    S S S S S S S S S S S S S S S  S    S S S S S S S S S S S S E  S S
---------------------------------|-----------------------------------|---------------------------------|
---------------------------------|-----------------------------------|------------------8--------------|
------5-----4-----5-----4-L--5---|------7-----5-----7-----7-L--------|------9-----7-----7-----7-L--9---|
------5-----4-----5-----4-L--5---|------7-----5-----7-----7-L--------|------9-----7-----------7-L--9---|
--3-3---3-3---3-3---3-3--------3-|--5-5---5-5---5-5------------------|--7-7---7-7---7-7---7-7----------|
---------------------------------|----------------------------7-8-10-|---------------------------------|


  S S S S S S S S S S S S E  S S    S S S S S S S S S S S S E  S S    S S S S S S S S S S S S S S S S
---------------------------------|---------------------------------|----------------------------------|
------------------8--------------|---------------------------------|----------------------------------|
------9-----7-----7-----7-L--9---|------5-----4-----5-----4-L--5---|------7-----5-----7-----7-L-------|
------9-----7-----------7-L--9---|------5-----3-----5-----3-L--5---|------7-----5-----7-----7-L-------|
--7-7---7-7---7-7---7-7----------|--3-3---3-3---3-3---3-3--------3-|--5-5---5-5---5-5-----------2-3-5-|
---------------------------------|---------------------------------|----------------------------------|


  W                   W                   H        H           H        H           W
-------------------|-------------------|--------------------|--------------------|-------------------|
-------------------|-------------------|--------------------|--------------------|-------------------|
-------------------|-------------------|--------------------|--------------------|-------------------|
-------------------|-------------------|--------------------|-----------5--------|-------------------|
--3----------------|--5----------------|--2--------5--------|--7--------7--------|--3----------------|
--3----------------|--5----------------|--2--------5--------|--7-----------------|--3----------------|


  W                   E.  E.  E.  E.  E  S S    E.  E.  E.  E.  E  S S    E.  E.  E.  E.  E  S S
-------------------|-------------------------|-------------------------|-------------------------|
-------------------|-------------------------|-------------------------|-------------------------|
-------------------|-------------------------|-------------------------|-------------------------|
-------------------|--2---------------2--4-5-|--2---------------2--4-5-|--2---------------2--4-5-|
--5----------------|--2---2---3---5---2------|--2---2---3---5---2------|--2---2---3---5---2------|
--5----------------|------2---3---5----------|------2---3---5----------|------2---3---5----------|


  E.  E.  E.  E.  E  S S    E.  E.  E.  E.  E  S S    E.  E.  E.  E.  E  S S    E.  E.  E.  E.  E  S S
-------------------------|-------------------------|-------------------------|-------------------------|
-------------------------|-------------------------|-------------------------|-------------------------|
-------------------------|-------------------------|-------------------------|-------------------------|
--2---------------2--4-5-|--2---------------2--4-5-|--2---------------2--4-5-|--2---------------2--4-5-|
--2---2---3---5---2------|--2---2---3---5---2------|--2---2---3---5---2------|--2---2---3---5---2------|
------2---3---5----------|------2---3---5----------|------2---3---5----------|------2---3---5----------|


  E.  E.  E.  E.  E  S S    S S S S S S S S S S S S E  S S    S S S S S S S S S S S S E  S S
-------------------------|---------------------------------|---------------------------------|
-------------------------|------------------8--------------|------------------8--------------|
-------------------------|------9-----7-----7-----7-L--9---|------9-----7-----7-----7-L--9---|
--2---------------2--4-5-|------9-----7-----------7-L--9---|------9-----7-----------7-L--9---|
--2---2---3---5---2------|--7-7---7-7---7-7---7-7--------7-|--7-7---7-7---7-7---7-7--------7-|
------2---3---5----------|---------------------------------|---------------------------------|


  S S S S S S S S S S S S E  S S    S S S S S S S S S S S S E  S S    S S S S S S S S S S S S E  S S
---------------------------------|---------------------------------|---------------------------------|
---------------------------------|---------------------------------|------------------8--------------|
------5-----4-----5-----4-L--5---|------7-----5-----7-----5-L--7---|------9-----7-----7-----7-L--9---|
------5-----4-----5-----4-L--5---|------7-----5-----7-----5-L--7---|------9-----7-----------7-L--9---|
--3-3---3-3---3-3---3-3--------3-|--5-5---5-5---5-5---5-5--------5-|--7-7---7-7---7-7---7-7--------7-|
---------------------------------|---------------------------------|---------------------------------|


  S S S S S S S S S S S S E  S S    S S S S S S S S S S S S E  S S    S S S S S S S S S S S S E  S S
---------------------------------|---------------------------------|---------------------------------|
------------------8--------------|---------------------------------|---------------------------------|
------9-----7-----7-----7-L--9---|------5-----4-----5-----4-L--5---|------7-----5-----7-----5-L--7---|
------9-----7-----------7-L--9---|------5-----4-----5-----4-L--5---|------7-----5-----7-----5-L--7---|
--7-7---7-7---7-7---7-7--------7-|--3-3---3-3---3-3---3-3--------3-|--5-5---5-5---5-5---5-5--------5-|
---------------------------------|---------------------------------|---------------------------------|


  S S S S S S S S S S S S E  S S    S S S S S S S S S S S S E  S S    S S S S S S S S S S S S E  S S
---------------------------------|---------------------------------|---------------------------------|
------------------8--------------|------------------8--------------|---------------------------------|
------9-----7-----7-----7-L--9---|------9-----7-----7-----7-L--9---|------5-----4-----5-----4-L--5---|
------9-----7-----------7-L--9---|------9-----7-----------7-L--9---|------5-----4-----5-----4-L--5---|
--7-7---7-7---7-7---7-7--------7-|--7-7---7-7---7-7---7-7--------7-|--3-3---3-3---3-3---3-3--------3-|
---------------------------------|---------------------------------|---------------------------------|


  S S S S S S S S S S S S E  S S    S S S S S S S S S S S S E  S S    S S S S S S S S S S S S E  S S
---------------------------------|---------------------------------|---------------------------------|
---------------------------------|------------------8--------------|------------------8--------------|
------7-----5-----7-----5-L--7---|------9-----7-----7-----7-L--9---|------9-----7-----7-----7-L--9---|
------7-----5-----7-----5-L--7---|------9-----7-----------7-L--9---|------9-----7-----------7-L--9---|
--5-5---5-5---5-5---5-5--------5-|--7-7---7-7---7-7---7-7--------7-|--7-7---7-7---7-7---7-7--------7-|
---------------------------------|---------------------------------|---------------------------------|


  S S S S S S S S S S S S E  S S    S S S S S S S S S S S S E  S S    W                   W
---------------------------------|---------------------------------|-------------------|-------------------||
---------------------------------|---------------------------------|-------------------|-------------------||
------5-----4-----5-----4-L--5---|------7-----5-----7-----5-L--7---|-------------------|-------------------||
------5-----4-----5-----4-L--5---|------7-----5-----7-----5-L--7---|-------------------|-------------------||
--3-3---3-3---3-3---3-3--------3-|--5-5---5-5---5-5---5-5--------5-|-------------------|-------------------||
---------------------------------|---------------------------------|-------------------|-------------------||





                                                BASS PART


     S S S S S S S S S S S S E  S S    S S S S S S S S S S S S S S S S    S S S S S S S S S S S S E  S S
G||---------------------------------|----------------------------------|---------------------------------|
D||--2-2-2-2-2---2-2-5-2-2-5-L--2-2-|--2-2-2-2-2---2-2---2-2-----------|--2-2-2-2-2---2-2-5-2-2-5-L--2-2-|
A||------------5--------------------|------------5-----3-----5-L-2-3-5-|------------5--------------------|
E||---------------------------------|----------------------------------|---------------------------------|


  S S S S S S S S S S S S S S S S    S S S S S S S S S S S S E  E     S S S S S S S S S S S S E  E
--------------------------2---2-4-|--------------------------------|--------------------------------|
--2-2-2-2-2---2-2---5-2-----5-----|--2-2-2-2-2---2-2-5-2-2------2--|--2-2-2-2-2---2-2-5-2-2------2--|
------------5-----3-----3---------|------------5-----------5-L-----|------------5-----------5-L-----|
----------------------------------|--------------------------------|--------------------------------|


  S S S S S S S S S S S S E  S S    S S S S S S S S S S S S S S S S    S S S S S S S S S S S S E  E
---------------------------------|----------------------------------|--------------------------------|
---------------------------------|----------------------------------|--2-2-2-2-2---2-2-5-2-2------2--|
--3-3-3-3-3-2-3-3-3-3-3-2-L--3-3-|--5-5-5-5-5-3-5-5-5-----5-L-2-3-5-|------------5-----------5-L-----|
---------------------------------|----------------------------------|--------------------------------|


  S S S S S S S S S S S S E  E     S S S S S S S S S S S S E  S S    S S S S S S S S S S S S Q
--------------------------------|---------------------------------|-------------------------------|
--2-2-2-2-2---2-2-5-2-2------2--|---------------------------------|-------------------------------|
------------5-----------5-L-----|--3-3-3-3-3-2-3-3-3-3-3-2-L--3-3-|--5-5-5-5-5-3-5-5-5-----5-L----|
--------------------------------|---------------------------------|-------------------------------|


  S S S S S S S S S S S S S S S S    S S S S S S S S S S S S S S S S    S S S S S S S S S S S S S S S S
----------------------------------|----------------------------------|----------------------------------|
----------------------------------|----------------------------------|----------------------------------|
--3-3-3-3-3-3-3-3-3-3-3-3-3-3-3-3-|--5-5-5-5-5-5-5-5-5-5-5-5-5-5-5-5-|--2-2-2-2-2-2-2-2-5-5-5-5-5-5-5-5-|
----------------------------------|----------------------------------|----------------------------------|


  S S S S S S S S S S S S S S S S    S S S S S S S S S S S S S S S S    S S S S S S S S S S S S S S S S
----------------------------------|----------------------------------|----------------------------------|
--2-2-2-2-2-2-2-2-5-4-2-----------|----------------------------------|----------------------------------|
------------------------5-3-2-----|--3-3-3-3-3-3-3-3-3-3-3-3-3-3-3-3-|--5-5-5-5-5-5-5-5-5-5-5-5-5-5-5-5-|
------------------------------5-3-|----------------------------------|----------------------------------|


  S S S S S S S S S S S S S S S S    S S S S S S S S S S S S S S S S    S S S S S S S S S S S S S S S S
----------------------------------|----------------------------------|----------------------------------|
--2-2-2-------------------2-2-4-5-|--2-2-2-------------------2-2-4-5-|--2-2-2-------------------2-2-4-5-|
--------2-2-2-3-3-3-5-5-5---------|--------2-2-2-3-3-3-5-5-5---------|--------2-2-2-3-3-3-5-5-5---------|
----------------------------------|----------------------------------|----------------------------------|


  S S S S S S S S S S S S S S S S    S S S S S S S S S S S S S S S S    S S S S S S S S S S S S S S S S
----------------------------------|----------------------------------|----------------------------------|
--2-2-2-------------------2-2-4-5-|--2-2-2-------------------2-2-4-5-|--2-2-2-------------------2-2-4-5-|
--------2-2-2-3-3-3-5-5-5---------|--------2-2-2-3-3-3-5-5-5---------|--------2-2-2-3-3-3-5-5-5---------|
----------------------------------|----------------------------------|----------------------------------|


  S S S S S S S S S S S S S S S S    S S S S S S S S S S S S S S S S    S S S S S S S S S S S S E  E
----------------------------------|----------------------------------|--------------------------------|
--2-2-2-------------------2-2-4-5-|--2-2-2-------------------2-2-4-5-|--2-2-2-2-2---2-2-5-2-2------2--|
--------2-2-2-3-3-3-5-5-5---------|--------2-2-2-3-3-3-5-5-5---------|------------5-----------5-L-----|
----------------------------------|----------------------------------|--------------------------------|


  S S S S S S S S S S S S E  E     S S S S S S S S S S S S E  S S    S S S S S S S S S S S S E  E
--------------------------------|---------------------------------|--------------------------------|
--2-2-2-2-2---2-2-5-2-2------2--|---------------------------------|--------------------------------|
------------5-----------5-L-----|--3-3-3-3-3-2-3-3-3-3-3-2-L--3-3-|--5-5-5-5-5-3-5-5-5-5-5-3-L--5--|
--------------------------------|---------------------------------|--------------------------------|


  S S S S S S S S S S S S E  E     S S S S S S S S S S S S E  E     S S S S S S S S S S S S E  S S
--------------------------------|--------------------------------|---------------------------------|
--2-2-2-2-2---2-2-5-2-2------2--|--2-2-2-2-2---2-2-5-2-2------2--|---------------------------------|
------------5-----------5-L-----|------------5-----------5-L-----|--3-3-3-3-3-2-3-3-3-3-3-2-L--3-3-|
--------------------------------|--------------------------------|---------------------------------|


  S S S S S S S S S S S S E  E     S S S S S S S S S S S S E  E     S S S S S S S S S S S S E  E
--------------------------------|--------------------------------|--------------------------------|
--------------------------------|--2-2-2-2-2---2-2-5-2-2------2--|--2-2-2-2-2---2-2-5-2-2------2--|
--5-5-5-5-5-3-5-5-5-5-5-3-L--5--|------------5-----------5-L-----|------------5-----------5-L-----|
--------------------------------|--------------------------------|--------------------------------|


  S S S S S S S S S S S S E  S S    S S S S S S S S S S S S E  E     S S S S S S S S S S S S E  E
---------------------------------|--------------------------------|--------------------------------|
---------------------------------|--------------------------------|--2-2-2-2-2---2-2-5-2-2------2--|
--3-3-3-3-3-2-3-3-3-3-3-2-L--3-3-|--5-5-5-5-5-3-5-5-5-5-5-3-L--5--|------------5-----------5-L-----|
---------------------------------|--------------------------------|--------------------------------|


  S S S S S S S S S S S S E  E     S S S S S S S S S S S S E  S S    S S S S S S S S S S S S E  E
--------------------------------|---------------------------------|--------------------------------|
--2-2-2-2-2---2-2-5-2-2------2--|---------------------------------|--------------------------------|
------------5-----------5-L-----|--3-3-3-3-3-2-3-3-3-3-3-2-L--3-3-|--5-5-5-5-5-3-5-5-5-5-5-3-L--5--|
--------------------------------|---------------------------------|--------------------------------|


  W                   W
-------------------|-------------------||
-------------------|-------------------||
-------------------|-------------------||
-------------------|-------------------||


Login or Register to remove this ad.

4 comments on Intro and Final Battle

Perfect!

I love this. This was the next track that I was going to tab, but you did it first. Plus, you did it better than I ever could have. Amazing tab, just amazing. :) Now one of us needs to tab "Town of Disease." I'll try it if you don't get to it first. I just need to finish up the solos to "Moonchild," and finish my tab for my new classical piece that I wrote. :)

Which one do you mean?

Which one do you mean? There's one misspelled "Town of Decease" on Youtube, but that's not the one that plays in Poper @[email protected] I'm confused!!

The Sad One

The one with the actual diseased people from the the muddy water. I'm using winamp and snesamp with the snes renamer and it wrongly named that one too. I'm pretty sure the sad one is supposed to be named "Town of Disease." If this helps, it's the one with the noticeably loud, and once again, sad melody. You might find it as "Voice of Spirits." That's what it's named on winamp. I just assume it's actually suppose to be Town of Disease, considering "Voloh" was wrongly named too.

Wow, nice job, Auri. I never

5

Wow, nice job, Auri. I never checked this one out before. I'm about to do some more songs from this OST so I wanted to see what we had. BTW, this song is called "Prince of Darkness"