Ads

Balance Kiss (Kiss×Sis) Guitar Tab

Submitted: Oct 28, 2010 by kanshiketsu89

3
Average: 3 (1 vote)
Download | Listen
Game: Kiss×Sis
Composer(s): Mizuki Ueki
Style: Transcription

This song is also called Baransu KISS

AutoScroll: Slow | Medium | Fast
Song name: Balance Kiss
Alternative name: Baransu KISS
Anime: Kiss x Sis
Composer: Mizuki Ueki
Sung by: Taketatsu Ayana & Tatsumi Yuiko
Tabbed by: kanshiketsu89

This is my guitar cover of an awesome and cheerful anime song. The tabs are pretty clear I think,
but if you get stuck somewhere just watch my video. Oh, and have fun. Cuz I certainly had. :)


         kiss me futari douji ni...
e/-0s7-/---7---------7-9-7-----------------/-----------------/---7-------7-9-7------/
B/-----/------9-9-10--------10-9-10-12-----/-9-10-9-7------7-/------9-10-------10-9-/
G/-----/-9-----------------------------9-9-/-----------9-9---/-9--------------------/
D/-----/-----------------------------------/-----------------/----------------------/
A/-----/-----------------------------------/-----------------/----------------------/
E/-----/-----------------------------------/-----------------/----------------------/

                                                         shiawase endoresu mirai....
e/-------------------------/-----7-8-7-----------------/---------------------------------------/
B/-----7-8-10-7--7-8-7---7-/-----------10--7-7h8p7-----/---------------------------------------/
G/-9-9-----------------9---/-9-9-------------------7-9-/-------11-13--13h14-13-11-11--11h13p11-/
D/-------------------------/---------------------------/-14-14---------------------------------/
A/-------------------------/---------------------------/---------------------------------------/
E/-------------------------/---------------------------/---------------------------------------/

                                    ria tomo ni wa kakushite mo...
e/--------------------------------/-----------------------/--------------------------/
B/--------------------------------/-9---------------------/-9------------------------/
G/-------11-13--13-13h14-13-11-11-/---9-9----9--9-9-9-9---/---9-9--9----9--9-9-9-9---/
D/-14-14--------------------------/-------11------------9-/----------11------------9-/
A/--------------------------------/-----------------------/--------------------------/
E/--------------------------------/-----------------------/--------------------------/

                                         de-ja-bu mitai...
e/-------------------------------------/-------------------------------/-------------------------/
B/-------------------------------------/-9-----------------------------/-9-----------------------/
G/----8-9-11-9-8----9-13--14-13-11-----/---9-9----9--13----------------/---9-9-------9--13-------/
D/-11------------11----------------14s-/-------11-------14-14-------14-/-------11-11-------14-16-/
A/-------------------------------------/----------------------16-16----/-------------------------/
E/-------------------------------------/-------------------------------/-------------------------/

   watashi hitori o...                   oshieteagetai ironna koto...
e/-------------------------------------/----------------------------/----------/
B/------8--8-----10--9-10-12-9---------/-------------9--9-7-7-------/----------/
G/-7--7------9-9---------------9-11-9s-/-6-6-8-8-9-9----------9-9-6-/-6-8-9----/
D/-------------------------------------/----------------------------/-------9s-/
A/-------------------------------------/----------------------------/----------/
E/-------------------------------------/----------------------------/----------/

                                  itsuka maji na koi ni kawatteta
e/------------------------------/--------------------------------/
B/------------------------------/--------------------------------/
G/-6-6-8-8-9-9-11--12-11-9-11-7-/-6---6--8---8--9----9--11-12-14-/
D/------------------------------/---7------9------10-------------/
A/------------------------------/--------------------------------/
E/------------------------------/--------------------------------/


  (this is a short impro, play fast or skip it)          kiss me futari douji ni...
e/-----------------------------------------------------/---7---------7-9-7-----------------/
B/-----------------------------------------------------/------9-9-10--------10-9-10-12-----/
G/-14-12-11-----12-11----------------------------------/-9-----------------------------9-9-/
D/----------14--------14-12--16-14-12-----14-12--------/-----------------------------------/
A/------------------------------------16--------16-14s-/-----------------------------------/
E/-----------------------------------------------------/-----------------------------------/

e/-----------------/---7---------7-9-7------/--------------------7-7-/
B/-9-10-9-7------7-/------9-9-10-------10-9-/-----7-8-10--7-8-10-----/
G/-----------9-9---/-9----------------------/-9-9--------------------/
D/-----------------/------------------------/------------------------/
A/-----------------/------------------------/------------------------/
E/-----------------/------------------------/------------------------/

e/---7---------7-9-7-----------------/--------------/---7---------7-9-7---------/
B/------9-9-10--------10-9-10-12-----/-9-10-9-7---7-/------9-9-10-------10-9-10-/
G/-9-----------------------------9-9-/----------9---/-9-------------------------/
D/-----------------------------------/--------------/---------------------------/
A/-----------------------------------/--------------/---------------------------/
E/-----------------------------------/--------------/---------------------------/

e/----------------------------/---------------------------------------/
B/-----7-8-10--7-8-10-8-7-----/---------------------------------------/
G/-9-9--------------------7-9-/-------11-13--13h14-13-11-11--11h13p11-/
D/----------------------------/-14-14---------------------------------/
A/----------------------------/---------------------------------------/
E/----------------------------/---------------------------------------/

e/---------------------------------/--<12>--/
B/---------------------------------/--------/
G/-------11-13--13-13h14-13-11-----/--------/
D/-14-14-----------------------14s-/--------/
A/---------------------------------/--------/
E/---------------------------------/--------/
Login or Register to remove this ad.