Ads

Gourmet Race (Kirby's Epic Yarn) Guitar Tab

Submitted: Feb 28, 2013 by ChelseaRare

5
Average: 5 (6 votes)
Download | Listen
Game: Kirby's Epic Yarn
Composer(s): Jun Ishikawa, Hirokazu Ando, Tomoya Tomita
Style: Arrangement, Fingerstyle
Series: Kirby

AutoScroll: Slow | Medium | Fast
Kirby's Epic yarn
Gourmet Race
Composed by Jun Ishikawa
Arranged by Chelsea Intal
2/27/13

Drop D Tuning DADGBe
Capo on fret 3


     Q    E  E  E  E  Q       E  E  E  E  H         
E||--0---------------------|-----------------------|
B||-------3--1--0----------|-----0--1--3--0--------|
G||----------------0-------|--2--------------------|
D||-------------------2----|-----------------------|
A||------------------------|-----------------------|
D||--0----0-----2-----2----|--3-----3-----2--------|


    E  E  E  E  E  E  E  E     E  E  E  E  E  E  E  E   
|---5-----------0-----------|--------------------------|
|---------------------------|--1-----0-----------------|
|*--------------------------|--------------2-----------|
|*-----2-----2-----2-----2--|-----2-----2-----2-----2--|
|---0-----------0-----------|--0-----------0-----------|
|---------2-----------2-----|--------2-----------2-----|

                                                     FIRST ENDING
  E  E  E  E  E  E  E  E     E  E  E  E  Q    E  E     E  E  E  E  E  E  E  E   
--------------------------|-------------------------|--5-----------0-----------|
--------0-----1-----------|-------------------------|--------------------------|
--2-----------------2-----|--0-----2----------------|--------------------------|
--0--3-----3--0--3-----3--|-----2-----2--2-------2--|-----2-----2-----2-----2--|
--------0-----------------|--0-----------0----------|--0-----------0-----------|
--------------------0-----|--------2----------2-----|--------2-----------2-----|


  E  E  E  E  E  E  E  E     E  E  E  E  Q    E  E   
--------------------------|-------------------------|
--1-----0--------------0--|--1-----3-----0-------0--|
--------------2-----2-----|-------------------0-----|
-----2-----2-----2-----2--|-----3--0--3--2----------|
--0-----------0-----------|-------------------------|
--------2-----------2-----|--0----------------2-----|

                             SECOND ENDING
  E  E  E  E  E  E  E  E       E  E  E  E  E  E  E  E   
---------------------------||--5-----------0-----------|
---------------------------||--------------------------|
--2-----------2-----------*||--------------------------|
-----2-----2-----2-----2--*||-----2-----2-----2-----2--|
--0-----------0------------||--0-----------0-----------|
--------2-----------2------||--------2-----------2-----|


  E  E  E  E  E  E  E  E     E  E  E  E  E  E  E  E   
--------------0-----------|--------------------------|
--1-----3-----------------|--0-----3-----0-----------|
--------------------2-----|-----0-----0-----0-----0--|
--0--3-----3--0--3-----3--|--------0-----2-----------|
--------0-----------------|--------------------------|
--------------------0-----|--0-----------------2-----|


  E  E  E  E  E  E  E  E       E  E  E  E  E  E  E  E   
--------------------------||---------------------------|
--------------------------||---------------------------|
--2-----------------------||*--------------------------|
-----2-----2-----2-----2--||*-----3-----3-----3-----3--|
--0-----------0-----------||---------------------0-----|
--------2-----------2-----||---0-----0-----3-----------|


  E  E  E  E  E  E  E  E     E  E  E  E  E  E  E  E     Q    Q    H         
--------------------------|--------------------------|---------------------|
--------------------------|--------------------------|---------------------|
--------------------------|--------------------------|---------------------|
-----2-----2-----2-----2--|-----3-----3-----3-----3--|-------0----2--------|
--3-----2-----0-----------|--------------------0-----|--3---------3--------|
--------------------2-----|--0-----0-----3-----------|---------------------|

FISRT ENDING
  E  E  E  E  E  E  E  E     E  E  E  E  E  E  E  E   
--1--------0--------------|--0-----------0-----------|
--------------3-----1--3--|--------------------------|
--------------------------|--------2-----------------|
-----3-----3-----3-----3--|-----2-----2-----2-----2--|
--------------0-----------|--0-----------3-----0-----|
--0-----3-----------0-----|--------2-----------------|


  E  S S E  E  E  E  E  E     E  E  E  E  E  E  E  E     
---------------------------|--------------0------------||
--3----3-3--1--0-----1--3--|--1-----3-----------1------||
---------------------------|--------------------------*||
-----0------0-----0-----0--|-----2-----2-----2-----2--*||
---------------------------|--0-----------0------------||
--5------0-----5-----0-----|--------2-----------2------||

SECOND ENDING
  E  E  E  E  E  S S E  E     E  E  E  E  E  E  E  E   
--1--------0---------1--3--|--5-----0-----------------|
--------------3----3-------|--------------1-----------|
---------------------------|--------------------2-----|
-----3-----3-----3------3--|-----2-----2-----2-----2--|
--------------0------------|--0-----------3-----0-----|
--0-----3------------0-----|--------2-----------------|


  E  S S E  E  E  S S E  E     E  E  E  E  E  E  E  E   
----------------------------|--------------------------|
--0----0-0--3--0------------|--------------------0-----|
-----0------0-----0-0----0--|--2-----------------------|
----------------------2-----|-----2-----2--2-----0-----|
---------2------------2-----|--0-----------0-----------|
--0------------0------------|--------2-----------5-----|


    E  S S E  E  E  E  E  E     E  S S E  E  E  E  E  S S  
|----------------0--0--------|----------------------------|
|-------------3--------3--1--|--0--0-0-0-----0----------0-|
|*--5--5-5-5-----------------|------------5-----------5---|
|*-----2------2-----2-----2--|-----0------0-----0-----0---|
|---3------------3-----------|----------------------------|
|----------5-----------5-----|--5------5-----5-----5------|


  E  S S E  E  E  E  E  E     E  S S E  E  E  Q    S S  
---------------------------|---------------------------|
------------0--1--1--0-----|---------------0-----------|
--2--2-2-2--------------2--|--0--0-0-0--2----------2-0-|
-----2------2-----2-----2--|-----2---2--2-----2----2---|
--0------------0-----------|---------------------------|
---------2-----------2-----|--2------------2-----------|

FISRT ENDING
  E  S S E  E  E  S S E  E     E  S S E  E  E  E  E  E   
----------------------------|---------------------------|
----------------------------|---------1--3--1-----------|
------------0--2--2-2-0-----|-------0-------------0-----|
--3--3-3-3--0-----0------3--|--2--2------2-----2-----2--|
-----5---0---------------5--|--3---------------3--------|
--0------------5------5-----|---------2-----------------|


  E  S S E  E  E  E  E  E     E  S S E  E  E  E  E  S S    
---------------------1-----|------------------------0----||
---------1--3--4--4-----4--|--3--3-3-3--4--3----------3--||
--5--5-5-------------------|----------------------------*||
------------1-----------1--|-----0------0-----0-----0---*||
-----6------------6--------|-----------------------------||
--6------1-----6-----1-----|--5------0-----5-----0-------||

SECOND ENDING
  E  S S E  E  E  S S E  E     E  S S E  E  E  E  E  E   
----------------------------|--0--0-0-0--3--0--0--------|
----------------------0--3--|---------------------3--1--|
------------0--2--2-2-------|---------------------------|
--3--3-3-3--0-----0------0--|-----2------2-----2-----2--|
-----5----------------------|--3------3-----------------|
--0------0-----5------5-----|---------------3-----3-----|


  E  E  E  E  E  E  E  E     E  E  E  E  H          
--------0--------0--------|--------0--5--4--------||
--0--3-----0--3-----0--3--|--0--3-----------------||
--------------------------|-----------------------||
-----2-----2-----2-----2--|-----2-----2-----------||
--2-----------2-----------|--------2--------------||
--------4-----------4-----|--2-----------2--------||




Duration Legend
---------------
W - whole
H - half
Q - quarter
E - 8th
S - 16th
T - 32nd
X - 64th
. - note dotted
|-n-|  - n-tuplets


Tablature Legend
----------------
L - tied note
x - dead note
g - grace note
(n) - ghost note
> - accentuded note
NH - natural harmonic
AH - artificial harmonic
TH - tapped harmonic
SH - semi harmonic
PH - pitch harmonic
h - hammer on
p - pull off
b - bend
br - bendRelease
pb - preBend
pbr - preBendRelease
brb - bendReleaseBend
\n/ - tremolo bar dip
\n - tremolo bar dive
-/n - tremolo bar Release up
/n\ - tremolo bar inverted dip
/n - tremolo bar return
-\n - tremolo bar Release down
S - shift slide
s - legato slide
/ -  slide into from below or out of upwards
\ -  slide into from above or out of downwards
~ - vibrato
W - wide vibrato
tr - trill
TP - tremolo picking
T - tapping
S - slap
P - pop
< - fade in
^ - brush up
v - brush down
Login or Register to remove this ad.

2 comments on Gourmet Race

I like it.

5

I like it. I feel like the bassline should be played by a jug.

Can someone make the jug

Can someone make the jug bassline happen?