Ads

Apt. 102 (Kirby's Epic Yarn) Guitar Tab

Submitted: Dec 25, 2011 by hslesperance (Last updated: Dec 30, 2011)

5
Average: 5 (1 vote)
Download | Listen
Game: Kirby's Epic Yarn
Composer(s): Jun Ishikawa, Hirokazu Ando, Tomoya Tomita
Style: Tapped harmonics, Transcription
Series: Kirby

AutoScroll: Slow | Medium | Fast
Apt. 102
Kirby's Epic Yarn
Composed by Tomoya Tomita
Tabbed by hslesperance
12/14/11

Thanks to ForestMarth for his help on this tab!


Standard Tuning

e------------------5------------------------------0-------2---
B---5/7--------5-----------------3-------3------2-------4-----
G------------------------------2-------2------2-----5---------
D----------------------------4-----5--------------------------
A-------------------------------------------------------------
E-------------------------------------------------------------

e-------------------5--------5/7---5--------------------------
B---5/7--------5--------------------------5----4--------------
G-------------------------------------------------------------
D-------------------------------------------------------------
A-------------------------------------------------------------
E-------------------------------------------------------------

e-------------------------------------------------------------
B---5/7---8--------------3----5/7---8----------3/5--------3---
G-----------4-------------------------4-----------------------
D-------------------------------------------------------------
A-------------------------------------------------------------
E-------------------------------------------------------------

Repeat everything above, then:

    TH  TH  TH  TH  TH  TH  TH  TH
e-------------------5-----------------------------------------
B-----------5---7-------7---5---------------------------------
G-------6-----------------------------------------------------
D---7---------------------------7-----------------------------
A-------------------------------------------------------------
E-------------------------------------------------------------
    TH  TH  TH  TH  TH  TH
e-------------------------------------------------------------
B-------------------------------------------------------------
G---7-------4---6---4-----------------------------------------
D-------7---------------7-------------------------------------
A-------------------------------------------------------------
E-------------------------------------------------------------
                                               TH   TH   TH
e---2---3-2--3--2--3--2-2--3--2---3-2--3--5--------------5----
B---------------------------------------------------3---------
G----------------------------------------------2--------------
D-------------------------------------------------------------
A-------------------------------------------------------------
E-------------------------------------------------------------

/ - slide up
TH - tapped harmonic
Login or Register to remove this ad.