Kirby's Pad (Kirby's Epic Yarn) Guitar Tab

Submitted: Oct 24, 2010 by Kabukibear (Last updated: Oct 24, 2010)

4.90909
Average: 4.9 (11 votes)
Download | Listen
Game: Kirby's Epic Yarn
Composer(s): Jun Ishikawa, Hirokazu Ando, Tomoya Tomita
Style: Arrangement, Fingerstyle
Series: Kirby

AutoScroll: Slow | Medium | Fast
Kirby's Pad                                   
~Kirby's Epic Yarn~
Composed by: Tomoya Tomita, Jun Ishikawa, Hirokazu Ando
Arranged by: Justin Lincoln

*Note: I used a capo on 5 because I preferred the bell like sounds it produced. 
If you wish to play it in the original key, don't use a capo at all.*

 (Capo 5)

Slowly

     E  E  E  E  E  E  E  E  E  E  E  E   
E||--------------------------------------|
B||--------------------------------------|
G||--------0--------0--------0--------0--|
D||-----2--------2--------2--------2-----|
A||--3--------3--------3--------3--------|
E||--------------------------------------|


    E  E  E  E  E  E  E  E  E  E  E  E     E  E  E  E  E  E  E  E  E  E  E  E   
|---------------------------------------|-----0--0--------------0--0-----------|
|------0--0--------------0--0-----------|--------------3--3--------------3--3--|
|*--------0-----2--2--------0-----2--2--|--------2--------2--------2--------2--|
|*-----2--------2--5-----2--------2--5--|-----3--------3--------3--------3-----|
|---3--------3--------3--------3--------|--3--------3--------3--------3--------|
|---------------------------------------|--------------------------------------|


  E  E  E  E  E  E  E  E  E  E  E  E     E  E  E  E  E  E  E  E  E  E  E  E   
--------------------------------------|-----0--0--------------0--0-----------|
-----0--0--------------0--0-----------|--------------3--3--------------3--3--|
--------0-----2--2--------0-----2--2--|--------2--------2--------2--------2--|
-----2--------2--5-----2--------2--5--|-----3--------3--------3--------3-----|
--3--------3--------3--------3--------|--3--------3--------3--------3--------|
--------------------------------------|--------------------------------------|


  E  E  E  E  E  E  E  E  E  E  E  E     E  E  E  E  E  E  E  E  E  E  E  E   
-----------------0--1-----------------|-----------------0--1--------3--------|
--------0--1--3-----------1--0--------|--------0--1--3-----------------------|
--0--2--------------------------------|--0--2--------------------------------|
--------0--------2--0-----0--------0--|--------0--------2--0-----0--------0--|
-----2-----0--3--------0--------2-----|-----2-----0--3--------0--------2-----|
--0--------------------------3--------|--0--------------------------3--------|


  E  E  E  E  E  E  E  E  E  E  E  E     E  E  E  E  E  E  E  E  E  E  E  E   
--------------------------------------|--------------------------------------|
-----0-----3-----------0-----3--0-----|-----0-----3-----------0-----3--0-----|
--------2--------0--------2--------2--|--------2-----------------2--------2--|
-----2--2-----2--------2--2-----2--2--|-----3--3-----3--3-----3--3-----3--3--|
--3--------3--------3--------3--------|--3--------3--------3--------3--------|
--------------------------------------|--------------------------------------|


  E  E  E  E  E  E  E  E  E  E  E  E     E  E  E  E  E  E  E  E  E  E  E  E   
--0--------------3-----------------0--|--1-----0-----------------------------|
--------------------3-----------------|-----------1-----------------------3--|
--------0--------0--------0--------0--|--------2--------2--------2--------2--|
-----2--------2--------2--------2-----|-----3--------3--------3--------3-----|
--3--------3--------3--------3--------|--3--------3--------3--------3--------|
--------------------------------------|--------------------------------------|


  E  E  E  E  E  E  E  E  E  E  E  E     E  E  E  E  E  E  E  E  E  E  E  E   
--0--------------3-----------------0--|--1-----0-----------3-----1-----------|
--------------------3-----------------|-----------1-----------------1-----3--|
--------0--------0--------0--------0--|--------2--2-----2--------2--------2--|
-----2--------2--------2--------2-----|-----3--------3--------3--------3-----|
--3--------3--------3--------3--------|--3--------3--------3--------3--------|
--------------------------------------|--------------------------------------|

                                                           Rall...
  E  E  E  E  E  E  E  E  E  E  E  E     E  E  E  E  E  E  E  E  E  E  E  E     
-----------------0--1-----------------|-----------------0--1-----0--3---------||
--------0--1--3-----------1--0--------|--------0--1--3--------------0---------||
--0--2-----------0--------------------|--0--2-----------0--------------------*||
--------0-----3-----0-----0-----------|--------0-----3-----0-----0--------0--*||
-----3-----0-----------0--------3--2--|-----3-----0-----------0--------2------||
--0--------------------------3--------|--0--------------------------3---------||


  ^                  
  W                  
-------------------||
--1----------------||
--0----------------||
--2----------------||
--3----------------||
-------------------||




Duration Legend
---------------
W - whole
H - half
Q - quarter
E - 8th
S - 16th
T - 32nd
X - 64th
. - note dotted
|-n-|  - n-tuplets


Tablature Legend
----------------
^ - brush up
Login or Register to remove this ad.

5 comments on Kirby's Pad

Nice, as usual. This game's

5

Awesome, as usual. This game's got a great soundtrack.

Another great arrangement.

5

Another great arrangement. Capo on the 5th fret sounds great and is easier to play too.

Thanks, Kabukibear.

Thanks for this nice arrangement

5

First, I really didn't like the sounds of the midi file produced by my computer (when u click on the "listen" button of this webpage). & finally when I try with a guitar, oh it sounds great. Also, surprising this big difference between computer & guitar rendering !

Cute :D

5

Quite nice. I like how your arranging songs from non mainstream games (imo).
The capo tuning does bring out that cute kirby bubbly feel.

Nice :)

4

It sounds good with a capo on the 12th fret. Sounds more like the recording.